» » »

Arijit Singh - Tum Hi Ho Tabs

Artists:  A B C D E F G H I J K L M N O P Q R S T U V W X Y Z # 

Tum Hi Ho Tabs

(ver. 1) Click to play this song!
Arijit Singh
 Rating:
3.8/5 (24 votes)

 Tum Hi Ho  lessons Tabs too difficult? Try these video lessons and learn fast
 
                PRECLUDED MUSIC....

e|----7---8---------------------|
B|--8-------8----10-7-----------|x4 times
G|-9----------------------------|
D|------------------------------|
A|------------------------------|
E|------------------------------|

song start.........


A PART:-

e|-7-12-10-10F8--8-7--5-5-5-8--7-7-7--5--5-3-5--5-3-2----------0------------|
B|-------------------------------------------------------3-3-----------------|
G|---------------------------------------------------------------------------|
D|---------------------------------------------------------------------------|
A|---------------------------------------------------------------------------|
E|---------------------------------------------------------------------------|

e|-7-12-10-10/8--8-7--5-5-5-8--7-7-7--5--5-3-5--5-3-2----------0-------------|
B|-------------------------------------------------------3-3-----------------|
G|---------------------------------------------------------------------------|
D|---------------------------------------------------------------------------|
A|---------------------------------------------------------------------------|
E|---------------------------------------------------------------------------|

B PART:-


e|------7---------------------------|
B|-8\10------8-10-7--10-8--7--------|
G|---------------------------7-9----|
D|----------------------------------|
A|----------------------------------|
E|----------------------------------|

e|--------7--------------------7-----------------------|
B|-7-8-10-----8-10-------8"10"-------8-10--7-10-8-------|
G|-------------------------------------------------7--9|
D|-----------------------------------------------------|
A|-----------------------------------------------------|
E|-----------------------------------------------------|


repeat part A


PART C

e|-0-|-2--2-2-2---2-8-8--7-7-7----7-12--12--7-7-7----5353--------2-----------|
B|--3------------------------------------------------------------------------|
G|---------------------------------------------------------------------------|
D|---------------------------------------------------------------------------|
A|---------------------------------------------------------------------------|
E|---------------------------------------------------------------------------|

repeat B......


interlude music...

e|-5-7-5-7---5------5-7--5-7-5--------------------------------------|
B|-------------8---------------8---8-10--8-10----7-5---7-5----------|
G|------------------------------------------------------------------|
D|------------------------------------------------------------------|
A|------------------------------------------------------------------|
E|------------------------------------------------------------------|


PART D...


e|-12--12-10-12---12-12-14----14-10---8-8-7-8---8---7-------5-8-7---8-8-7-8----7-5-3-----|
B|----------------------------------------------------5----------------------------------|
G|---------------------------------------------------------------------------------------|
D|---------------------------------------------------------------------------------------|
A|---------------------------------------------------------------------------------------|
E|---------------------------------------------------------------------------------------|

e|-5-8-7-----0--8-7--0-2--2-2---2-8-8---7-7-7----5-3-5-3--------2------------|
B|------------3--------------------------------------------------------------|
G|---------------------------------------------------------------------------|
D|---------------------------------------------------------------------------|
A|---------------------------------------------------------------------------|
E|---------------------------------------------------------------------------|            
Submit corrections


        Tum Hi Ho  lessons Hard to play? Try these video lessons and learn fast Tum Hi Ho  lessons
        
↑ Back to top | Tablatures and chords for acoustic guitar and electric guitar, ukulele, drums are parodies/interpretations of the original songs. You may use it for private study, scholarship, research or language learning purposes only