» » »

Arijit Singh - Tum Hi Ho Tabs

Artists:  A B C D E F G H I J K L M N O P Q R S T U V W X Y Z # 

Tum Hi Ho Tabs

(ver. 2) Click to play this song!
Arijit Singh
 Rating:
4.4/5 (7 votes)

 Tum Hi Ho  lessons Tabs too difficult? Try these video lessons and learn fast
 
                
[Intro]
e|--------------------------|
B|--------0-----1-----------|
G|-----0-----0-----0--2-----|
D|-----------------------4--| 4x
A|--------------------------|
E|--0-----------------------|

[Verse]
e|-----0---------------|-----------------------|---------------------|----------------------|
B|--0-----3--3p1--1p0--|----------0h1p0--0--0--|---------------------|----------------------|
G|---------------------|--2p0--2---------------|--2--2--0---2--2--0--|-----------------0-2--|
D|---------------------|-----------------------|--0---------0--------|--4--2-0---2--2-------|
A|---------------------|--0--------------------|---------------------|--2--------3----------|
E|--0------------------|-----------------------|---------------------|----------------------|

e|--------------------------|
B|--------0-----1-----------|
G|-----0-----0-----0--2-----|
D|-----------------------4--| 2x
A|--------------------------|
E|--0-----------------------|

e|-----0---------------|-----------------------|---------------------|----------------------|
B|--0-----3--3p1--1p0--|----------0h1p0--0--0--|---------------------|----------------------|
G|---------------------|--2p0--2---------------|--2--2--0---2--2--0--|-----------------0-2--|
D|-----------x---------|--------------x--------|--0------------------|--4--2-0---2--2-------|
A|-----------x---------|--0-----------x--------|------------x--------|--2--------3----------|
E|--0--------x---------|--------------x--------|------------x--------|-----------x----------|

e|-----0---------------|-----------------------|---------------------|----------------|
B|--0-----3--3p1--1p0--|----------0h1p0--0--0--|---------------------|----------------|
G|---------------------|--2p0--2---------------|--2--2--0---2--2--0--|----------------|
D|-----------x---------|--------------x--------|--0------------------|--4--2-0---2----|
A|-----------x---------|--0-----------x--------|------------x--------|--2--------3----|
E|--0--------x---------|--------------x--------|------------x--------|-----------x----|

[Pre-Chorus]
e|---------------------------|----------------|-----0-----0--0---------------------|----------------|
B|------------------------1--|--1p0--0-----0--|--0-----4---------------------------|----------------|
G|---------------------------|----------2-----|-----------------4--4\2--2p0--2--0--|-----0--2-------|
D|--0h2--2h4--4--2-4---4-----|-------------x--|------------------------------------|--2--------4----|
A|-------3---------x---------|-------------x--|--------2-----------x---------------|-----------0----|
E|-----------------x---------|--3----------x--|--------------------x---------------|----------------|

[Chorus]
e|-------------------|-------------------------|-------------------------------|-----------|
B|-------0-----------|-------0-----------------|-------------------------------|-----------|
G|--0h2-----0--2--2--|--0h2-----0--2--2--2--0--|-----2--0--0-------------------|-----0--2--|
D|-------------------|-------------------------|--4-----------4p2--4--0--2--2--|--2--------|
A|----------------x--|-------0--------x--------|--0--------x-------2--------x--|-----------|
E|-------0--------x--|----------------x--------|-----------x----------------x--|-----------|

e|--------------|-------------------------|----------------------------|-----------|
B|--0-----------|-------0-----------------|----------------------------|-----------|
G|-----0--2--2--|--0h2-----0--2--2--2--0--|-----2--0--0----------------|-----0--2--|
D|--------------|-------------------------|--4-----------4p2--4--0--2--|--2--------|
A|-----------x--|-------0--------x--------|--0--------x-------2-----x--|-----------|
E|--0--------x--|----------------x--------|-----------x-------------x--|-----------|

[Pre-Chorus]

e|--------------------------|-------------------------|--------------------|--------------|
B|-----0--0-----0--0--------|-----0--0-----0--0-------|--------------------|--------------|
G|--2--------2--------2--0--|--2--------2--------2p0--|--0--2--2--0--2--2--|--------------|
D|--------------x-----------|--------------x----------|--0-----------------|--4--2--4--2--|
A|--------------x-----------|--0-----------x----------|--------------x-----|--------2-----|
E|--0-----------x-----------|--------------x----------|--------------x-----|--------------|

e|-----------------|
B|-----------------|
G|-----------0--2--|
D|-----2--2--------|
A|--3--x-----------|
E|-----x-----------|

e|--------------------------|-------------------------|--------------------|--------------|
B|-----0--0-----0--0--------|-----0--0-----0--0-------|--------------------|--------------|
G|--2--------2--------2--0--|--2--------2--------2p0--|--0--2--2--0--2--2--|--------------|
D|--------------x-----------|--------------x----------|--0-----------------|--4--2--4--2--|
A|--------------x-----------|--0-----------x----------|--------------x-----|--------2-----|
E|--0-----------x-----------|--------------x----------|--------------x-----|--------------|

                       C
e|-----------------|-------|
B|-----------------|-------|
G|-----------0--2--|--0----|
D|-----2--2--------|--2----|
A|--3--x-----------|--3----|
E|-----x-----------|-------|

[Bridge]
             C                         Bm                          C                    
e|--0--0--------0-----------|--0--2------------------------|--------0-----------|
B|--------3--3-----------1--|---------2--2--2--------------|--1--1-----------1--|
G|-----------0-----0--------|------------------4--4--4--4--|-----------0--------|
D|-----------2--------2--x--|------------------------------|-----------------x--|
A|-----------3-----------x--|---------2-----------x--------|-----3--------3--x--|
E|-----------------------x--|---------------------x--------|-----------------x--|

             Bm                                              
e|--0--2------------------|
B|---------2--2--2--------|
G|------------------4--4--|
D|------------------------|
A|---------2-----------x--|
E|---------------------x--|

e|--------------|------------------|-----------|----------------------|---------------------|
B|--1--1--0--1--|-0--1--1--0-------|--0h1-0-0--|--1--1--0--1--1--3----|--1--0-----0h1p0--0--|
G|--------------|-------------0-0--|-----------|----------------------|--------0------------|
D|--------------|-------x----------|--------x--|-------------------x--|------------------x--|
A|-----------0--|-------x----------|--------x--|-----------0-------x--|------------------x--|
E|--------------|-------x-------0--|--------x--|-------------------x--|--------0---------x--|

[Pre-Chorus]
e|----------------------------|----------------|-----0-----0--0-------------------------|--------3--2--|
B|-------------------------1--|--1p0h1p0----0--|--0-----4-------------------------------|-----3-----3--|
G|----------------------------|----------2-----|-----------------4--4\2--2p0h2p0--2--0--|--2--------2--|
D|--0h2--2h4--4--2--4---4-----|-------------x--|----------------------------------------|-----------0--|
A|-------3----------x---------|-------------x--|--------2-----------x----0--------------|--------------|
E|------------------x---------|--3----------x--|--------------------x-------------------|--------------|

[Chorus]
e|----------------|----------------|--2--5--3--2-----0--|-----------|
B|-------0--------|-------0--------|--3--------3--3-----|-----------|
G|--0h2-----0--2--|--0h2-----0--2--|--2--------4--------|-----0--2--|
D|----------------|----------------|-----------4--------|--4--------|
A|----------------|----------------|-----------2--------|-----------|
E|-------0--------|-------0--------|--------------------|-----------|

e|--------------|-------------------------|----------------------------|-----------|
B|--0-----------|-------0-----------------|----------------------------|-----------|
G|-----0--2--2--|--0h2-----0--2--2--2--0--|-----2--0--0----------------|-----0--2--|
D|--------------|-------------------------|--4-----------4p2--4--0--2--|--2--------|
A|-----------x--|-------0--------x--------|--0--------x-------2-----x--|-----------|
E|--0--------x--|----------------x--------|-----------x-------------x--|-----------|

e|-------0-----------|-------0-----------|--------------|-------------------|-----------|
B|--0h3-----0--3--3--|--0h3-----1--1--1--|-----3--0--0--|-------------------|-----0--3--|
G|-------------------|-------------------|--2-----------|--2p0--2-----0--0--|--2--------|
D|----------------x--|----------------x--|--0--------x--|-------0--4--------|-----------|
A|----------------x--|-------0--------x--|-----------x--|----------------x--|-----------|
E|-------0--------x--|----------------x--|-----------x--|----------------x--|-----------|

e|--0-----------|-------0-----------|--------------|-----------|-----------|
B|-----0--3--3--|--0h3-----1--1--1--|-----3--0--0--|--------4--|-----------|
G|--------------|-------------------|--2-----------|-----------|-----0--2--|
D|-----------x--|----------------x--|--0--------x--|--4--0-----|--2--------|
A|-----------x--|-------0--------x--|-----------x--|--2-----3--|-----------|
E|--0--------x--|----------------x--|-----------x--|-----------|-----------|

[Outro]
e|--------------------------|
B|--------0-----1-----------|
G|-----0-----0-----0--2-----|
D|-----------------------4--| 3x
A|--------------------------|
E|--0-----------------------|

e|-----------------|
B|--------0--------|
G|-----0-----0-----|
D|-----------------| 
A|-----------------|
E|--0-----------0--|            
Submit corrections


        Tum Hi Ho  lessons Hard to play? Try these video lessons and learn fast Tum Hi Ho  lessons
        
↑ Back to top | Tablatures and chords for acoustic guitar and electric guitar, ukulele, drums are parodies/interpretations of the original songs. You may use it for private study, scholarship, research or language learning purposes only