Home » A » Aretha Franklin »

Aretha Franklin - Natural Woman Bass

Artists:  A B C D E F G H I J K L M N O P Q R S T U V W X Y Z # 

Natural Woman Bass
Version #1
Aretha Franklin


Copy URL
G|----------------|
D|----------------|
A|----3-----------|
E|----------------|
  ^   ^   ^   ^   

  Verse 1 ('Looking out...')
G|------------------------|------------------------|------------------------|------------------------|
D|------------------------|------------------------|------------------------|3-----------3---2---0---|
A|3-----------3-----------|2-----------2-----------|1-----------1-----------|------------------------|
E|------------------------|------------------------|------------------------|------------------------|
  ^   ^   ^   ^   ^   ^    ^   ^   ^   ^   ^   ^    ^   ^   ^   ^   ^   ^    ^   ^   ^   ^   ^   ^

G|------------------------|------------------------|------------------------|------------------------|
D|------------------------|------------------------|------------------------|3-----------3-----------|
A|3-----------3-----------|2-----------2-----------|1-----------1-----------|------------------------|
E|------------------------|------------------------|------------------------|------------------------|
  ^   ^   ^   ^   ^   ^    ^   ^   ^   ^   ^   ^    ^   ^   ^   ^   ^   ^    ^   ^   ^   ^   ^   ^

  Bridge ('Before the day I met you...')
G|------------------------|------------------------|------------------------|------------------------|
D|------------2-----------|------------2-----------|------------2-----------|------------------------|
A|5-----------------------|5-----------------------|5-----------------------|5----------------------2|
E|------------------------|------------------------|------------------------|-----------33---3---3---|
  ^   ^   ^   ^   ^   ^    ^   ^   ^   ^   ^   ^    ^   ^   ^   ^   ^   ^    ^   ^   ^   ^   ^   ^

  Chorus
G|------------------------|------------------------|5---2-------------------|------------------------|
D|-----------23-----------|-----------23-----------|--------5---2-----------|------------------------|
A|3-------3-----------0--2|3-------3-----------0---|----------------5---3---|5----------------------2|
E|----------------1-------|----------------1-------|------------------------|--------3--33---3---3---|
  ^   ^   ^   ^   ^   ^    ^   ^   ^   ^   ^   ^    ^   ^   ^   ^   ^   ^    ^   ^   ^   ^   ^   ^


  Verse 2 ('When my soul...')
G|------------------------|------------------------|------------------------|------------------------|
D|------------------------|------------------------|------------------------|3-----------3---2---0---|
A|3-----------3-----------|2-----------2----------0|1-----------1-----------|------------------------|
E|------------------------|--------------------3---|------------------------|------------------------|
  ^   ^   ^   ^   ^   ^    ^   ^   ^   ^   ^   ^    ^   ^   ^   ^   ^   ^    ^   ^   ^   ^   ^   ^

G|------------------------|------------------------|------------------------|------------------------|
D|------------------------|------------------------|------------------------|3-----------3---3---3--3|
A|3-----------3-------3---|2-----------2----------0|1-----------1-----------|------------------------|
E|------------------------|--------------------3---|------------------------|------------------------|
  ^   ^   ^   ^   ^   ^    ^   ^   ^   ^   ^   ^    ^   ^   ^   ^   ^   ^    ^   ^   ^   ^   ^   ^

  Bridge ('Now I'm no longer...')
G|------------------------|------------------------|------------------------|------------------------|
D|0----------02-----------|------------2-----------|------------2-----------|------------------------|
A|------------------------|5-----------------------|5-----------------------|5----------------------2|
E|------------------------|------------------------|------------------------|-----------33---3---3---|
  ^   ^   ^   ^   ^   ^    ^   ^   ^   ^   ^   ^    ^   ^   ^   ^   ^   ^    ^   ^   ^   ^   ^   ^

  Chorus
G|------------------------|------------------------|5---2-------------------|------------------------|
D|-----------23-----------|-----------23-----------|--------5---2-----------|------------------------|
A|3-------3-----------0--2|3-------3-----------0---|----------------5---3---|5------55--------------2|
E|----------------1-------|----------------1-------|------------------------|------------3---3---3---|
  ^   ^   ^   ^   ^   ^    ^   ^   ^   ^   ^   ^    ^   ^   ^   ^   ^   ^    ^   ^   ^   ^   ^   ^

  Middle 8 ('Baby what you done to me?')
G|------------------------|------------------------|------------------------|------------------------|
D|------------------------|------------------------|------------------------|-----------------------2|
A|3----------33-------3---|-----------------------2|3-----------3----------3|--------------------3---|
E|------------------------|3---3---3---3---3---3---|------------------------|3---3---3---3---3-------|
  ^   ^   ^   ^   ^   ^    ^   ^   ^   ^   ^   ^    ^   ^   ^   ^   ^   ^    ^   ^   ^   ^   ^   ^

G|------------------------|------------------------|------------------------|------------------------|
D|3-----------3-------3---|------------------------|3-----------2----------2|0-----------------------|
A|------------------------|3---3---3---3---3---3---|------------------------|-----------------------2|
E|------------------------|------------------------|------------------------|-----------33---3---3---|
  ^   ^   ^   ^   ^   ^    ^   ^   ^   ^   ^   ^    ^   ^   ^   ^   ^   ^    ^   ^   ^   ^   ^   ^
  
  Chorus
G|------------------------|------------------------|5---2-------------------|------------------------|
D|-----------23-----------|-----------23-----------|--------5---2-----------|------------------------|
A|3------03-----------0--2|3-------3-----------0---|----------------5---3---|5----------------------2|
E|----------------1-------|----------------1-------|------------------------|----3---3--33---3---3---|
  ^   ^   ^   ^   ^   ^    ^   ^   ^   ^   ^   ^    ^   ^   ^   ^   ^   ^    ^   ^   ^   ^   ^   ^

G|------------------------|------------------------|5---2-------------------|------------------------|
D|-----------23-----------|-----------23-----------|--------5---2-----------|------------------------|
A|3------03-----------0--2|3-------3-----------0---|----------------5---3---|5---5---5--------------2|
E|---------------01-------|----------------1-------|------------------------|-----------03---3---3---|
  ^   ^   ^   ^   ^   ^    ^   ^   ^   ^   ^   ^    ^   ^   ^   ^   ^   ^    ^   ^   ^   ^   ^   ^            
Submit corrections

↑ Back to top | Tablatures and chords for acoustic guitar and electric guitar, ukulele, drums are parodies/interpretations of the original songs. You may use it for private study, scholarship, research or language learning purposes only