Home » A » Aretha Franklin »

Aretha Franklin - I Never Loved A Man The Way I Love You Bass

Artists:  A B C D E F G H I J K L M N O P Q R S T U V W X Y Z # 

I Never Loved A Man The Way I Love You Bass
Version #1
Aretha Franklin


Copy URL
 [Intro]
  Q=134
  9/8
   Gtr I
   W           W           Q.   +Q   E Q.     Q.   +E  E E Q  E
G|-----------|-----------|------------------|--------------------||
D|-----------|-----------|------------------|--------------------||
A|-----------|-----------|-----------3-3----|------------0-1--3--||
E|-----------|-----------|-1----(1)---------|-1----(1)-1---------||


  [1st & 2nd Verses]
     Q.   +E  E E Q  E   Q.   +Q   E E E E
G||--------------------|-------------------|
D||o-------------------|-------------------|
A||o------------0-1--3-|-----------0-1-2-3-|
E||--1----(1)-x--------|-1----(1)----------|


   Q.   +Q   E Q  E   Q.   +E  E E Q  E
G|------------------|--------------------|
D|------------------|--------------------|
A|-----------0-1--3-|------------0-1--3--|
E|-1----(1)---------|-1----(1)-1---------|


   Q.   +Q   E Q  E   Q.   +Q   E E E E   Q.   +Q   E Q  E   Q.   +E  E E E E E
G|------------------|-------------------|-----------5-3--0-|--------------------|
D|------------------|-------------------|------------------|--------------------|
A|-----------3-1--3-|-----------3-0-1-2-|-3----(3)---------|-3----(3)-3-2-1-----|
E|-1----(1)---------|-1----(1)----------|------------------|----------------3-2-|


   Q.   +Q   E Q  E   Q.   +E  E E E E E
G|------------------|--------------------|
D|------------------|----------3---------|
A|-----------3-1--3-|------------3-1-----|
E|-1----(1)---------|-1----(1)-------3-2-|


   Q.   +Q   E Q  E   Q.   +E  E E E E E
G|------------------|--------------------|
D|------------------|----------3---------|
A|-----------0-1--3-|------------3-1-----|
E|-1----(1)---------|-1----(1)-------3-2-|


   Q.   +Q   E Q  E   Q.   +Q   E E E E
G|------------------|-------------------|
D|------------------|-------------------|
A|-----------3-1--3-|-------------1-1-2-|
E|-1----(1)---------|-1----(1)--1-------|


   Q.   +Q   E Q  E   Q.   +E  E E E E E
G|-----------5-3--0-|----------5---3-----||
D|------------------|------------5---3-4-||
A|-3----(3)---------|-3----(3)-----------||
E|------------------|--------------------||


  [Chorus]
   Q.   +Q   E Q  E   Q.   +E  E E E E E
G|-----------5-3--0-|----------5---3-----|
D|------------------|------------5---3-4-|
A|-3----(3)---------|-3----(3)-----------|
E|------------------|--------------------|


   Q.   +Q   E Q  E   Q.   +E  E E E E E
G|-----------5-3--0-|----------5---3-----|
D|------------------|------------5-------|
A|-3----(3)---------|-3----(3)-----------|
E|------------------|----------------3-2-|


   Q.   +E  E E E E E   Q.   +E  E E Q  E   Q.   +Q   E E E E   Q.   H.
G|--------------------|-------------------|-------------------|------------|
D|--------------------|-------------------|-----------3-------|------------|
A|------------3-1-----|------------3-1----|-------------0-1-2-|-3----------|
E|-1----(1)-1-----3-2-|-1----(1)-1------2-|-1----(1)----------|------------|


                          1.
   W           W           Q.   +Q   E Q  E   Q.   +E  E E E E E
G|-----------|-----------|------------------|---------------------||
D|-----------|-----------|------------------|----------3---------o||
A|-----------|-----------|-------------1--3-|------------0-1-2-3-o||
E|-----------|-----------|-1----(1)--0------|-1----(1)------------||


                                      [Bridge]
  2.
   Q.   E E E E E E   Q.   Q.   Q.      Q.   +Q   E Q  E   Q.   +Q   E Q  E
G|------------------|----------------||------------------|------------------|
D|------------------|----------------||------------------|------------------|
A|------------------|-----------0----||-1----(1)--1-1--1-|-1----(1)--1-1--1-|
E|-1----1-1-1-1-1-1-|-1----4---------||------------------|------------------|


   Q.   +Q   E Q  E   Q.   +Q   E E E E   Q.   +Q   E Q  E   Q.   +Q   E E E E
G|------------------|-------------------|------------------|-------------------|
D|------------------|-------------------|------------------|-------------------|
A|-1----(1)--1-1--1-|-1----(1)--1-------|------------------|-------------0-1-2-|
E|------------------|-------------4-3-2-|-1----(1)--1-1--1-|-1----(1)--1-------|


   Q.   +Q   E Q  E   Q.   +Q   E Q  E   Q  E E E E E E E   E E E E E E E E E
G|------------------|------------------|------------------|-------------------|
D|------------------|------------------|------------------|-------------------|
A|-3----(3)----3----|-3----(3)----3----|-3--3-3-3-3-3-3-3-|-3-3-3-3-3-3-3-3-3-|
E|-----------3----3-|-----------3----3-|------------------|-------------------|


   E E E E E E E E E   E E E E E E E E E
G|-------------------|-------------------|
D|-------------------|-------------------|
A|-1-1-1-1-1-1-1-1-1-|-------------------|
E|-------------------|-4-4-4-4-4-4-4-4-4-|


   Q.   +E  E E Q  E   Q.   +E  E E E E E
G|-------------------|--------------------||
D|-------------------|--------------------||
A|------------3-1--3-|------------0-1-1-3-||
E|-1----(1)-1--------|-1----(1)-1---------||


  [Outro]
   Q  E Q  E Q  E   Q  E Q  E E E E   Q  E E E E Q  E     Q  E E E E E E E  7x
G|----------------|-----------------|-----------------||--------------------||
D|------3---------|------3----------|------3----------||o------3-----------o||
A|---------0-1--3-|---------0-1-2-3-|--------0-3-1--3-||o--------0-3-1-2-3-o||
E|-1--1-----------|-1--1------------|-1--1------------||--1--1--------------||

            
Submit corrections

↑ Back to top | Tablatures and chords for acoustic guitar and electric guitar, ukulele, drums are parodies/interpretations of the original songs. You may use it for private study, scholarship, research or language learning purposes only