Home » A » Aretha Franklin »

Aretha Franklin - I Cant See Myself Leaving You Bass

Artists:  A B C D E F G H I J K L M N O P Q R S T U V W X Y Z # 

I Cant See Myself Leaving You Bass
Version #1
Aretha Franklin


Copy URL
Gtr I (E A D G) - 'Jerry Jemmott - Bass'

  [Intro]                 [1st & 2nd Verses]
  Q=96
  4/4
   Gtr I
   W          W            E E E E E E E E   E E E E E S S S S E
G|----------|----------||------------------|---------------------|
D|----------|----------||o-----------------|---------------------|
A|----------|----------||o-----------------|-----------5-3-5-3-0-|
E|----------|----------||--1-1---1---1---1-|-1-1---1-------------|


   E E E E E E E E   E E E E E S S S S E
G|-----------------|---------------------|
D|-----------------|---------------------|
A|-----------------|-----------5-3-5-3-0-|
E|-1-1---1---1---1-|-1-1---1-------------|


   E E E E E E E E   E E E E E S S S S E
G|-----------------|---------------------|
D|-----------------|---------------------|
A|-----------------|-----------5-3-5-3-0-|
E|-1-1---1---1---1-|-1-1---1-------------|


                                           [Chorus]
   E E E E E E E E   E E E E E S S S S E    Q.   E +E  E E E   E Q  Q  Q  E
G|-----------------|---------------------||------------------|----------------|
D|-----------------|---------------------||------------------|----------------|
A|-----------------|-----------5-3-5-3-0-||------5-(5)-0-5-0-|-1-0-----0------|
E|-1-1---1---1---1-|-1-1---1-------------||-5----------------|------3-----3---|


   +Q   Q  Q  Q    S E S E S S +S  S E S S E   Q.   E +E  S S S S E
G|---------------|---------------------------|-----------------------|
D|---------------|---------------------------|-----------------------|
A|---------------|-3-3-3-3-3-3-(3)-3-3-3-3-2-|------5-(5)-0-0-5-5-0--|
E|-(3)--3--3--3--|---------------------------|-5---------------------|


   E Q  Q  E E E   +Q   Q  Q  Q    S E S E S S +S  S E S S E
g|---------------|---------------|----------------------------||
d|---------------|---------------|---------------------------o||
A|-1-0-----0-0---|---------------|-3-3-3-3-3-3-(3)-3-3-3-3-3-o||
E|------3------3-|-(3)--3--3--3--|----------------------------||


  [Interlude]
   E E E E E E E E   E E E E E S S S S E
G|-----------------|---------------------|
D|-3-3---3---3---3-|---------------------|
A|-----------------|-----------5-3-5-3-0-|
E|-----------------|-1-1---1-------------|


   E E E E E E E E   E E E E E S S S S E
G|-----------------|---------------------||
D|-3-3---3---3---3-|---------------------||
A|-----------------|-----------5-3-5-3-0-||
E|-----------------|-1-1---1-------------||


  [Bridge]
   Q  E E E E E E   Q  E E E E E E   Q  E E E E S S S S   E E E E E E E E
G|----------------|----------------|--------------------|-------------------|
D|----------------|----------------|------------------3-|-5-5---5-5-5-------|
A|----------------|----------------|--------------5-5---|---------------3---|
E|-3----3-3-3---3-|-3----3-3-3---3-|-3----3-3-3---------|-------------------|


                                [3rd Verse]
   S S S S S S S S E E S S E     E E E E E E E E   E E E E E S S S S E
G|---------------------------||------------------|---------------------|
D|---------------------------||o-----------------|---------------------|
A|-----0-0-1-1-2-2-3-3-3-----||o-----------------|-----------5-3-5-3-0-|
E|-3-3-------------------3-2-||--1-1---1---1---1-|-1-1---1-------------|


                                            [Chorus]
   E E E E E E E E   E E E E E S S S S E     Q.   E +E  E E E   E Q  Q  Q  E
G|-----------------|----------------------||------------------|----------------|
D|-----------------|---------------------o||------------------|----------------|
A|-----------------|-----------5-3-5-3-0-o||------5-(5)-0-5-0-|-1-0-----0------|
E|-1-1---1---1---1-|-1-1---1--------------||-5----------------|------3-----3---|


   +Q   Q  Q  Q    S E S E S S +S  S E S S E
G|---------------|---------------------------|
D|---------------|---------------------------|
A|---------------|-3-3-3-3-3-3-(3)-3-3-3-3-2-|
E|-(3)--3--3--3--|---------------------------|


   Q.   E +E  S S S S E   E Q  Q  E E E
G|----------------------|---------------|
D|----------------------|---------------|
A|------5-(5)-0-0-5-5-0-|-1-0-----0-0---|
E|-5--------------------|------3------3-|


   +Q   Q  Q  Q    S E S E S S +S  S E S S E
G|---------------|---------------------------|
D|---------------|---------------------------|
A|---------------|-3-3-3-3-3-3-(3)-3-3-3-3-3-|
E|-(3)--3--3--3--|---------------------------|


   [Outro]
     E E E E E E E E   E E E E E S S S S S S
G||------------------|-------------------0-----|
D||o-----------------|-------------0-2-3---3---|
A||o-----------------|-----------3-------------|
E||--1-1---1---1---1-|-1-1---1-----------------|


   E E E E E E E E   E E E E E S S S S S S
G|-----------------|-------------------0---|
D|-----------------|-------------0-2-3---3-|
A|-----------------|-----------3-----------|
E|-1-1---1---1---1-|-1-1---1---------------|


   E E E E E E E E   E E E E E S S S S S S
G|-----------------|-------------------0----||
D|-----------------|-------------0-2-3---3-o||
A|-----------------|-----------3-----------o||
E|-1-1---1---1---1-|-1-1---1----------------||

            
Submit corrections

↑ Back to top | Tablatures and chords for acoustic guitar and electric guitar, ukulele, drums are parodies/interpretations of the original songs. You may use it for private study, scholarship, research or language learning purposes only