Home » A » Aretha Franklin »

Aretha Franklin - Dr Feelgood Bass

Artists:  A B C D E F G H I J K L M N O P Q R S T U V W X Y Z # 

Dr Feelgood Bass
Version #1
Aretha Franklin


Copy URL
Gtr I (E A D G) - 'Tommy Cogbill - Bass'

  [Intro]                                [1st Verse]
  Q=73
  12/8
   Gtr I
   W              Q.   Q.   Q.   Q  E    Q.   Q.   Q.   E E E
G|--------------|---------------------||------------------------|
D|--------------|---------------------||------------------------|
A|--------------|-------------------2-||-3----3----3----3-1-0---|
E|--------------|------3----3----3----||------------------------|


   Q.   Q.   Q.   Q.     Q.   Q.   Q  E E E E   Q.   Q.   Q  E E E E
G|---------------------|----------------------|-----------------------|
D|---------------------|----------------------|-----------------------|
A|---------------------|----------------0-1-2-|-3----3----3------0-2--|
E|-3----3----3----3----|-3----3----3--4-------|--------------0-3------|


   Q.   Q.   Q.   E E E   Q.   Q  E Q.   E E E   Q.   Q  E Q.   Q  E
G|----------------------|----------------------|----------------------|
D|----------------------|----------------------|---------3-2----2-----|
A|-3----3----3----3-1-0-|-----------0----0-5-3-|-3----3---------------|
E|----------------------|-3----3--3------------|-------------------0--|


   Q.   E E E Q.   E E E   Q.   Q.   Q.   E E E   Q.   Q.   Q.   Q  E
G|-----------------------|----------------------|----------------------|
D|-----------------------|----------------------|-------------------0--|
A|-0----0-----0----0-1-2-|-3----3----3----3-1-0-|------2----3----4-----|
E|--------3-0------------|----------------------|-3--------------------|


                                                 [2nd Verse]
   Q.   Q.   Q  E E E E   Q.   Q  E Q  E E E E    Q.   E E E Q.   E E E
G|----------------------|----------------------||------------------------|
D|----------------0-----|-----------5----------||------------------------|
A|-2----1----0--4---0---|---------5----5---0-2-||-3----3---1-3----3-1-0--|
E|--------------------4-|-3----3---------3-----||--------3---------------|


           |3|         |3|
   Q.   Q  E S Q.   Q  E S   Q.   Q  E Q  E E E E   Q.   Q.   Q.   E E E
G|-------------------------|----------------------|-----------------------|
D|-----------------------4-|-5----5---------------|-----------------------|
A|---------------------5---|---------5------0-1-2-|-3----3----3------1-2--|
E|-3----3--3-3-3----3------|-----------3--4-------|----------------3------|


            |3-|     |3-|     |3|
   Q.   Q  +E  S Q  +E  S E E E S
G|--------------------------------|
D|--------------------------------|
A|-3----3--(3)-3-3--(3)-3-3-1-0---|
E|------------------------------4-|


   Q.   E E E Q.   E E E   Q.   E E E Q.   E E E
G|-----------------------|-----------------------|
D|-----------------------|--------0-3-2----2-----|
A|------------0----0-5-3-|-2----2----------------|
E|-3----3-4-3------------|-------------------0-4-|


   Q.   Q  E Q  E E E E   Q.   Q.   Q.   E E E   Q.   Q.   Q.   Q  E
G|----------------------|----------------------|----------------------|
D|----------------------|----------------------|-------------------0--|
A|----------------0-1-2-|-3----3----3----3-1-0-|------2----3----4-----|
E|-3----3--2-0--3-------|----------------------|-3--------------------|


                                                 [3rd Verse]
   Q.   Q  E Q  E E E E   Q.   Q.   Q.   E E E    Q.   Q.   Q  E E E E
G|----------------------|----------------------||-----------------------|
D|----------------0-----|----------------------||--------------0--------|
A|-3----1--1-0--0---0---|----------------3-1-0-||----------------3-1-0--|
E|--------------------4-|-3--------------------||-3---------------------|

 
                                                                      |3|
   Q.   Q.   Q  E E E E   Q  E E E E E E E E E E   Q.   Q.   Q.   E E E S
G|----------------------|------------------------|------------------------|
D|--------------0-------|------------------------|------------------------|
A|----------------3-1-0-|------------------0-1-2-|-3----3----3------0-1-2-|
E|-3--------------------|-3--3-2-3-3-3-3-4-------|----------------3-------|


   Q.   Q.   Q.   E E E   Q.   Q  E Q.   E E E   Q.   Q  E Q.   E E E
G|----------------------|----------------------|-----------------------|
D|----------------------|----------------------|---------3-2-----------|
A|-3----3----3----3-1-0-|-----------0----0-5-3-|-3----3----------------|
E|----------------------|-3----3--3------------|----------------0-2-4--|


   Q.   E E E Q.   E E E   Q.   Q  E Q.   Q  E   Q  E Q  E Q  E Q  E
G|-----------------------|---------------------|----------------------||
D|-----------------------|-----------0----0----|----------------------||
A|-0----0-----0----0-1-2-|-3----3--4---------0-|------2--2-3--3-4--4--||
E|--------0-3------------|---------------------|-3--3-----------------||


  [Outro]
                |-3-| |-3-| |-3-| |-3-| |-3-| |-3-| |-3-|
   Q.   S S S S S S S S S S S S S S S S S S S S S S S S S
G|--------------------------------------------------------|
D|--------------------------------------------------------|
A|-5------------------------------------------------------|
E|------4-4-4-4-4-4-4-4-4-4-4-4-4-4-4-4-4-4-4-4-4-4-4-4-4-|


   |-3-| |-3-| |-3-| |-3-| |-3-| |-3-|
   S S S S S S S S S S S S S S S S S S H.
G|-------------------------------------------*|
D|-------------------------------------------*|
A|-------------------------------------------*|
E|-4-4-4-4-4-4-4-4-4-4-4-4-4-4-4-4-4-4-4-----*|            
Submit corrections

↑ Back to top | Tablatures and chords for acoustic guitar and electric guitar, ukulele, drums are parodies/interpretations of the original songs. You may use it for private study, scholarship, research or language learning purposes only