Home » A » Aretha Franklin »

Aretha Franklin - Do Right Woman Do Right Man Bass

Artists:  A B C D E F G H I J K L M N O P Q R S T U V W X Y Z # 

Do Right Woman Do Right Man Bass
Version #1
Aretha Franklin


Copy URL
Intro
G|11-------9--------|------------------|------------------|
D|------------------|7--------7--4-----|------------------|
A|------------------|---------------7--|------------------|
E|------------------|------------------|5-----------------|
  ^  ^  ^  ^  ^  ^   ^  ^  ^  ^  ^  ^   ^  ^  ^  ^  ^  ^   
  1  2  3  4  5  6 etc.

Verse
G|------------------|------------------|------------------|------------------|
D|------------------|------------------|------------------|2--------2-----2--|
A|------------------|------------------|------------------|------------2-----|
E|5--------5--------|5--------5--4--2--|0--------0--------|------------------|
  ^  ^  ^  ^  ^  ^   ^  ^  ^  ^  ^  ^   ^  ^  ^  ^  ^  ^   ^  ^  ^  ^  ^  ^   

G|------------------|------------------|------------------|------------------|
D|------------------|------------------|------------------|------------------|
A|5--------5--------|5--------5--4--2--|------------------|------------------|
E|------------------|------5-----------|5--------5--------|5--------0--2--4--|
  ^  ^  ^  ^  ^  ^   ^  ^  ^  ^  ^  ^   ^  ^  ^  ^  ^  ^   ^  ^  ^  ^  ^  ^   

G|------------------|------------------|------------------|------------------|
D|------------------|------------------|------------------|2--------2-----2--|
A|------------------|------------------|---------------2--|------------2-----|
E|5--------5--------|5--------5--4--2--|0--------0--4-----|------------------|
  ^  ^  ^  ^  ^  ^   ^  ^  ^  ^  ^  ^   ^  ^  ^  ^  ^  ^   ^  ^  ^  ^  ^  ^   

G|------------------|------------------|------------------|------------------|
D|------------------|------------------|------------------|------------------|
A|5--------5--------|5--------5--4--2--|------------------|------------------|
E|------------------|------5-----------|5--------5--------|5-----------------|
  ^  ^  ^  ^  ^  ^   ^  ^  ^  ^  ^  ^   ^  ^  ^  ^  ^  ^   ^  ^  ^  ^  ^  ^   

Bridge 
G|------------------|------------------|------------------|------------------|
D|------------------|------------------|------------------|---------------1--|
A|2--------2--------|2--------------0--|2--------2--------|2--------2--4-----|
E|------------------|---------2----2---|------------------|------2-----------|
  ^  ^  ^  ^  ^  ^   ^  ^  ^  ^  ^  ^   ^  ^  ^  ^  ^  ^   ^  ^  ^  ^  ^  ^   

G|------------------|------------------|------------------|------------------|
D|2--------2--------|2--------2-----1--|2--------2--------|2-----------------|
A|------------------|------------2-----|------------------|------------------|
E|------------------|------------------|------------------|---------0--2--4--|
  ^  ^  ^  ^  ^  ^   ^  ^  ^  ^  ^  ^   ^  ^  ^  ^  ^  ^   ^  ^  ^  ^  ^  ^   

Chorus
G|------------------|------------------|------------------|------------------|
D|------------------|------------------|------------------|---------------1--|
A|------------------|5--------------4--|2--------2--------|2--------2--4-----|
E|5--------0--------|---------5--------|---------------2--|------2-----------|
(or if you have a 5-string...)
B|---------5--------|3-----------------|------------------|------------------|
  ^  ^  ^  ^  ^  ^   ^  ^  ^  ^  ^  ^   ^  ^  ^  ^  ^  ^   ^  ^  ^  ^  ^  ^   

G|------------------|------------------|------------------|------------------|
D|2--------2--------|2-----------------|------------------|------------------|
A|---------------2--|------2-----------|------------------|------------------|
E|------------------|---------0--2--4--|5--------5-----0--|5-----------------|
  ^  ^  ^  ^  ^  ^   ^  ^  ^  ^  ^  ^   ^  ^  ^  ^  ^  ^   ^  ^  ^  ^  ^  ^   

Middle 8
G|------------------|------------------|------------------|------------------|
D|------------------|------------------|------------------|------------------|
A|------------------|------------------|4--------4--------|4--------4-----4--|
E|2--------2--------|2--------2-----2--|------------------|------------------|

B|------------------|------------------|2--------2--------|2--------2-----2--|
  ^  ^  ^  ^  ^  ^   ^  ^  ^  ^  ^  ^   ^  ^  ^  ^  ^  ^   ^  ^  ^  ^  ^  ^   

G|------------------|------------------|------------------|------------------|
D|------------------|------------------|------------------|------------------|
A|------------------|------------------|------------------|------------------|
E|2--------2--------|2--------2--------|0--0--0--0--0--0--|0-----------------|
  ^  ^  ^  ^  ^  ^   ^  ^  ^  ^  ^  ^   ^  ^  ^  ^  ^  ^   ^  ^  ^  ^  ^  ^   

Chorus
G|------------------|------------------|------------------|------------------|
D|------------------|------------------|------------------|---------------1--|
A|------------------|5--------------4--|2--------2--------|2--------2--4-----|
E|5--------0--------|---------5--------|---------------2--|------2-----------|

B|---------5--------|3-----------------|------------------|------------------|
  ^  ^  ^  ^  ^  ^   ^  ^  ^  ^  ^  ^   ^  ^  ^  ^  ^  ^   ^  ^  ^  ^  ^  ^   

G|------------------|------------------|------------------|------------------|
D|2--------2--------|2--------2--------|------------------|------------------|
A|---------------2--|---------------2--|------------------|------------------|
E|------------------|------------------|5--------5-----0--|5-----------------|
  ^  ^  ^  ^  ^  ^   ^  ^  ^  ^  ^  ^   ^  ^  ^  ^  ^  ^   ^  ^  ^  ^  ^  ^   

Bridge 
G|------------------|------------------|------------------|------------------|
D|------------------|------------------|------------------|---------------1--|
A|2--------2--------|2-----------------|2--------2--------|2--------2--4-----|
E|---------------2--|------------2--5b-|---------------2--|------------------|
  ^  ^  ^  ^  ^  ^   ^  ^  ^  ^  ^  ^   ^  ^  ^  ^  ^  ^   ^  ^  ^  ^  ^  ^   

G|------------------|------------------|------------------|------------------|
D|2--------2--------|2--------2--------|2--------2--------|------------------|
A|------------------|---------------2--|------------------|------------------|
E|------------------|------------------|------------------|0--0--0--0--2--4--|
  ^  ^  ^  ^  ^  ^   ^  ^  ^  ^  ^  ^   ^  ^  ^  ^  ^  ^   ^  ^  ^  ^  ^  ^   

Chorus
G|------------------|------------------|------------------|------------------|
D|------------------|------------------|------------------|---------------1--|
A|------------------|5--------------4--|2--------2--------|2--------2--4-----|
E|5--------0--------|---------5--------|---------------2--|------2-----------|

B|---------5--------|3-----------------|------------------|------------------|
  ^  ^  ^  ^  ^  ^   ^  ^  ^  ^  ^  ^   ^  ^  ^  ^  ^  ^   ^  ^  ^  ^  ^  ^   

G|------------------|------------------|------------------|------------------|
D|2--------2--------|------------------|------------------|------------------|
A|---------------2--|------------------|------------------|------------------|
E|------------------|0--------0--2--4--|5--------5-----0--|5--------5--4--2--|
  ^  ^  ^  ^  ^  ^   ^  ^  ^  ^  ^  ^   ^  ^  ^  ^  ^  ^   ^  ^  ^  ^  ^  ^   

G|------------------|------------------|------------------|------------------|
D|------------------|------------------|------------------|------------------|
A|------------------|------------------|------------------|------------------|
E|0--0--0--0--0--0--|0--0--0--0--2--4--|5--------5--------|5-----------------|
  ^  ^  ^  ^  ^  ^   ^  ^  ^  ^  ^  ^   ^  ^  ^  ^  ^  ^   ^  ^  ^  ^  ^  ^               
Submit corrections

↑ Back to top | Tablatures and chords for acoustic guitar and electric guitar, ukulele, drums are parodies/interpretations of the original songs. You may use it for private study, scholarship, research or language learning purposes only