Home » A » Aretha Franklin »

Aretha Franklin - Chain Of Fools Tabs

Artists:  A B C D E F G H I J K L M N O P Q R S T U V W X Y Z # 

Chain Of Fools Tabs

(ver. 1) Click to play this song!
Aretha Franklin
 Intro
  Freely Q=106
  E
 4/4
  Gtr I (El. Gtr. w/ amp tremolo / 2 whole steps down: C F Bb Eb G C)
  S E S E S S a E a E Q    +H     H
|---------------------0--|-(0)---------|
|---------------------0--|-(0)---------|
|-------0-----0h1-0h1-1--|-(1)---------|
|---------0h2-0h2-0h2-2--|-(2)---------|
|-----2---------------2--|-(2)---------|
|-0h3-----------------0--|-(0)---------|


 Chorus
  In Time Q=112
  $
  E
  Q   Q   E  Q    E   +Q    Q   E  E E  E
|-------------------|---------------------|
|---------0--2----3-|-(3)-----------------|
|-------------------|----------------0----|
|-------------------|-------------------2-|
|-------------------|--------------2------|
|-0-----------------|-----------3---------|
|
| Gtr II (El. Gtr. 2 whole steps down: C F Bb Eb G C)
| Q   E E E  E E  E    Q    E E E  E E  E
|----12-----12---12-|------12-----12---12-|
|----12-----12---12-|------12-----12---12-|
|----13-----13---13-|------13-----13---13-|
|-------------------|---------------------|
|-------------------|---------------------|
|-------------------|---------------------|


  +Q    Q   E  Q    E   +Q    Q   E  Q    E
|-------0-------------|-------0------0-------|
|-------0-------------|-----------3----------|
|---------------------|----------------------|
|-(2)-----------------|----------------------|
|---------------------|----------------------|
|-----------3--3----0-|-(0)------------------|
|
|  Q    E E E  E E  E    Q    E E E  E E  E
|------12-----12---12-|------12-----12---12--|
|------12-----12---12-|------12-----12---12--|
|------13-----13---13-|------13-----13---13--|
|---------------------|----------------------|
|---------------------|----------------------|
|---------------------|----------------------|


  Q   Q   E  Q    E   +Q    E E Q    E  E
|-------------------|---------------------|
|-----3-------------|-------3-------------|
|------------0------|---------0-----------|
|-----------------2-|-(2)-------2---------|
|-------------------|---------------------|
|-------------------|-------------------0-|
|
| Q   E E E  E E  E    Q    E E E  E E  E
|----12-----12---12-|------12-----12---12-|
|----12-----12---12-|------12-----12---12-|
|----13-----13---13-|------13-----13---13-|
|-------------------|---------------------|
|-------------------|---------------------|
|-------------------|---------------------|


  Q   E E E  Q    E   +Q    Q   E  Q    E
|---------3--3----0-|-(0)---0------0-------||
|-------------------|-----------3----------||
|-------------------|----------------------||
|-------------------|----------------------||
|-------------------|----------------------||
|-------0-----------|----------------------||
|
| Q   E E E  E E  E    Q    E E E  E E  E
|----12-----12---12-|------12-----12---12--||
|----12-----12---12-|------12-----12---12--||
|----13-----13---13-|------13-----13---13--||
|-------------------|----------------------||
|-------------------|----------------------||
|-------------------|----------------------||


   1st & 3rd Verses
    E
    Q   Q   E  Q    E     +E  Q.      +Q.       E
||------0------0--------|-----0-------(0)---------|
||o---------3-------3b5-|-(3)---------------------|
||----------------------|-----------------------1-|
||----------------------|-------------------------|
||o---------------------|-------------------------|
||--0-------------------|-------------------------|
|
|   Q   E E E  E E  E      Q      E E  E   E E  E
||-----12-----12---12---|--------12-------12---12-|
||o----12-----12---12---|--------12-------12---12-|
||-----13-----13---13---|--------13-------13---13-|
||----------------------|-------------------------|
||o---------------------|-------------------------|
||----------------------|-------------------------|


  Q   E E E  Q    E   +E  Q.      E  Q    E
|-------------------|-----0-----------------|
|-------------------|-----------------------|
|---------0--0------|-----------------------|
|-2---------------2-|-(2)-------------------|
|-------------------|-----------------------|
|-------3-----------|-------------3--3----0-|
|
| Q   E E E  E E  E    Q      E E E  E E  E
|----12-----12---12-|--------12-----12---12-|
|----12-----12---12-|--------12-----12---12-|
|----13-----13---13-|--------13-----13---13-|
|-------------------|-----------------------|
|-------------------|-----------------------|
|-------------------|-----------------------|


  +Q    Q   E  Q    E   Q   Q   E  E E  E
|--------------0------|-0-----------------|
|-----------3-------3-|-------------------|
|---------------------|---------1---------|
|---------------------|------------0-2--2-|
|---------------------|-------------------|
|-(0)-----------------|-------------------|
|
|  Q    E E E  E E  E   Q   E E E  E E  E
|------12-----12---12-|----12-----12---12-|
|------12-----12---12-|----12-----12---12-|
|------13-----13---13-|----13-----13---13-|
|---------------------|-------------------|
|---------------------|-------------------|
|---------------------|-------------------|


             To Coda
  Q   E E E  E E  E    +E  E  Q   E  Q.
|--------------------|--------0------0--------||
|--------------------|------------3----------o||
|---------0----------|-----1------------------||
|------------0-2-----|------------------------||
|-------2------------|-----------------------o||
|-0---3-----------0--|-(0)--------------------||
|
| Q   E E E  E E  E     Q     E E E  E  E  E
|----12-----12---12--|-------12-----12----12--||
|----12-----12---12--|-------12-----12----12-o||
|----13-----13---13--|-------13-----13----13--||
|--------------------|------------------------||
|--------------------|-----------------------o||
|--------------------|------------------------||


 Chorus
  E
  Q   Q   E  Q    E   +Q    Q   E  E E  E
|-------------------|---------------------|
|---------0--2----3-|-(3)-----------------|
|-------------------|----------------0----|
|-------------------|-------------------2-|
|-------------------|--------------2------|
|-0-----------------|-----------3---------|
|
| Q   E E E  E E  E    Q    E E E  E E  E
|----12-----12---12-|------12-----12---12-|
|----12-----12---12-|------12-----12---12-|
|----13-----13---13-|------13-----13---13-|
|-------------------|---------------------|
|-------------------|---------------------|
|-------------------|---------------------|


  +Q    Q   E  Q    E   +Q    Q   E  Q    E
|-------0-------------|-------0------0-------||
|-------0-------------|-----------3----------||
|---------------------|----------------------||
|-(2)-----------------|----------------------||
|---------------------|----------------------||
|-----------3--3----0-|-(0)------------------||
|
|  Q    E E E  E E  E    Q    E E E  E E  E
|------12-----12---12-|------12-----12---12--||
|------12-----12---12-|------12-----12---12--||
|------13-----13---13-|------13-----13---13--||
|---------------------|----------------------||
|---------------------|----------------------||
|---------------------|----------------------||


 2nd Verse
  E
  Q   Q   E  Q    E     +E  Q.      +Q.       E
|-----0------0--------|-----0-------(0)---------|
|---------3-------3b5-|-(3)---------------------|
|---------------------|-----------------------1-|
|---------------------|-------------------------|
|---------------------|-------------------------|
|-0-------------------|-------------------------|
|
| Q   E E E  E E  E      Q      E E  E   E E  E
|----12-----12---12---|--------12-------12---12-|
|----12-----12---12---|--------12-------12---12-|
|----13-----13---13---|--------13-------13---13-|
|---------------------|-------------------------|
|---------------------|-------------------------|
|---------------------|-------------------------|


  Q   E E E  Q    E   +E  Q.      E  Q    E
|-------------------|-----0------------------|
|-------------------|------------------------|
|---------0--0------|------------------------|
|-2---------------2-|-(2)--------------------|
|-------------------|------------------------|
|-------3-----------|-------------3--3----0--|
|
| Q   E E E  E E  E    Q      E E E  E E  E
|----12-----12---12-|--------12-----12---12--|
|----12-----12---12-|--------12-----12---12--|
|----13-----13---13-|--------13-----13---13--|
|-------------------|------------------------|
|-------------------|------------------------|
|-------------------|------------------------|


  Q   Q   E  Q    E   +Q    E E Q    E  E
|-------------------|---------------------|
|-----3-------------|-------3-------------|
|------------0------|---------0-----------|
|-----------------2-|-(2)-------2---------|
|-------------------|---------------------|
|-------------------|-------------------0-|
|
| Q   E E E  E E  E    Q    E E E  E E  E
|----12-----12---12-|------12-----12---12-|
|----12-----12---12-|------12-----12---12-|
|----13-----13---13-|------13-----13---13-|
|-------------------|---------------------|
|-------------------|---------------------|
|-------------------|---------------------|


  Q   E E E  Q    E   +Q    Q   E  Q    E
|---------3--3----0-|-(0)---0------0-------||
|-------------------|-----------3----------||
|-------------------|----------------------||
|-------------------|----------------------||
|-------------------|----------------------||
|-------0-----------|----------------------||
|
| Q   E E E  E E  E    Q    E E E  E E  E
|----12-----12---12-|------12-----12---12--||
|----12-----12---12-|------12-----12---12--||
|----13-----13---13-|------13-----13---13--||
|-------------------|----------------------||
|-------------------|----------------------||
|-------------------|----------------------||


 Bridge
  N.C.
  W          W          W          W          W
|----------|----------|----------|----------|------|
|----------|----------|----------|----------|------|
|----------|----------|----------|----------|------|
|----------|----------|----------|----------|------|
|----------|----------|----------|----------|------|
|----------|----------|----------|----------|------|


                                          D.S. al Coda
                                  2/4    4/4
  W          W          W          W      H    E Q  E
|----------|----------|----------|------|----------------||
|----------|----------|----------|------|----------------||
|----------|----------|----------|------|----------------||
|----------|----------|----------|------|----------------||
|----------|----------|----------|------|----------------||
|----------|----------|----------|------|------3-3--0----||


                           Out-Chorus
  &
                            E
   E  E  Q   E  Q.          Q   Q   E  Q    E
|--------0------0-------||--------------------|
|------------3----------||o---------0--2----3-|
|-----1-----------------||--------------------|
|-----------------------||--------------------|
|-----------------------||o-------------------|
|-(0)-------------------||--0-----------------|
|
| Gtr II
|  Q     E E E  E  E  E     Q   E E E  E E  E
|-------12-----12----12-||-----12-----12---12-|
|-------12-----12----12-||o----12-----12---12-|
|-------13-----13----13-||-----13-----13---13-|
|-----------------------||--------------------|
|-----------------------||o-------------------|
|-----------------------||--------------------|


  +Q    Q   E  E E  E   +Q    Q   E  Q    E   +Q    Q   E  Q    E
|---------------------|-------0-------------|-------0------0-------|
|-(3)-----------------|-------0-------------|-----------3----------|
|----------------0----|---------------------|----------------------|
|-------------------2-|-(2)-----------------|----------------------|
|--------------2------|---------------------|----------------------|
|-----------3---------|-----------3--3----0-|-(0)------------------|
|
|  Q    E E E  E E  E    Q    E E E  E E  E    Q    E E E  E E  E
|------12-----12---12-|------12-----12---12-|------12-----12---12--|
|------12-----12---12-|------12-----12---12-|------12-----12---12--|
|------13-----13---13-|------13-----13---13-|------13-----13---13--|
|---------------------|---------------------|----------------------|
|---------------------|---------------------|----------------------|
|---------------------|---------------------|----------------------|


  Q   Q   E  Q    E   +Q    E E Q    E  E
|-------------------|---------------------|
|-----3-------------|-------3-------------|
|------------0------|---------0-----------|
|-----------------2-|-(2)-------2---------|
|-------------------|---------------------|
|-------------------|-------------------0-|
|
| Q   E E E  E E  E    Q    E E E  E E  E
|----12-----12---12-|------12-----12---12-|
|----12-----12---12-|------12-----12---12-|
|----13-----13---13-|------13-----13---13-|
|-------------------|---------------------|
|-------------------|---------------------|
|-------------------|---------------------|


  Q   E E E  Q    E   +Q    Q   E  Q    E
|---------3--3----0-|-(0)---0------0--------||
|-------------------|-----------3----------o||
|-------------------|-----------------------||
|-------------------|-----------------------||
|-------------------|----------------------o||
|-------0-----------|-----------------------||
|
| Q   E E E  E E  E    Q    E E E  E E  E
|----12-----12---12-|------12-----12---12---||
|----12-----12---12-|------12-----12---12--o||
|----13-----13---13-|------13-----13---13---||
|-------------------|-----------------------||
|-------------------|----------------------o||
|-------------------|-----------------------||            
Submit corrections

↑ Back to top | Tablatures and chords for acoustic guitar and electric guitar, ukulele, drums are parodies/interpretations of the original songs. You may use it for private study, scholarship, research or language learning purposes only