» » »

Arcade Fire - Reflektor Tabs

Artists:  A B C D E F G H I J K L M N O P Q R S T U V W X Y Z # 

Reflektor Tabs

(ver. 1) Click to play this song!
Arcade Fire
 Rating:
4/5 (4 votes)

 Reflektor lessons Tabs too difficult? Try these video lessons and learn fast
 
                "Reflektor"


Ok, first of all, I want you to know that
This is just the way I play this song,
I don't know how many guitars you need in this song,
Or which notes did the guitar play or not.
So... Here it goes...

Intro:

E|-----------|
B|-----------|
G|-----------|  While
D|------7-7--|  this
A|-----------|  is      A|--9--|
E|--7-7------|  played

Verse:

E|-------------------|-------------------|-------------------|-------------------|
B|-------------------|-------------------|-------------------|-------------------|
G|-------------------|----------6--------|-------------------|----------6--------|
D|--9-7-9----7---7p9-|-------7----7p9----|--9-7-9----7---7p9-|-------7----7p9----|
A|--------9----9-----|-9-7p9-------------|--------9----9-----|-9-7p9-------------|
E|-------------------|-------------------|-------------------|-------------------|

E|-------------------|-------------------|-------------------|-------------------|
B|-------------------|-------------------|-------------------|-------------------|
G|-------------------|----------6--------|----------6--------|----------6--------|
D|--9-7-9----7---7p9-|-------7----7p9----|-9-7p9------7p9-9--|-9-7p9------7p9-9--|
A|--------9----9-----|-9-7p9-------------|-------9-----------|-------9-----------|
E|-------------------|-------------------|-------------------|-------------------|

Trapped in a prism, in a prism of light
Alone in the darkness, darkness of white
We fell in love, alone on a stage
In the reflective age

E|--14--12--10---------------------|
B|--------------14--12--10---------|
G|--------------------------11-----|
D|------------------------------9--|
A|---------------------------------|
E|---------------------------------|

Entre la nuit, la nuit et l'aurore.
Entre les royaumes, des vivants et des morts.
If this is heaven
I don't know what it's for
If I can't find you there
I don't care

Chorus:

E|--------------2-----2--|
B|--------------3-----3--|
G|--9-----7-----4-----4--|
D|--9-----7-----4-----4--|
A|--7-----5-----2-----2--|
E|-----------------------|

I thought, I found a way to enter
It's just a reflektor
I thought, I found the connector
It's just a reflektor

Verse: Same as the first one

The signals we send, are deflected again
We're still connected, but are we even friends?
We fell in love when I was nineteen
And I was staring at a screen

Entre la nuit, la nuit et l'aurore.
Entre les voyants, les vivants et les morts.
If this is heaven
I need something more
Just a place to be alone
'Cause you're my home

Chorus:

Guitar 2:

E|--------------2-----2--|--------------2-----2--|
B|--------------3-----3--|--------------3-----3--|
G|--9-----7-----4-----4--|--9-----7-----4-----4--|
D|--9-----7-----4-----4--|--9-----7-----4-----4--|
A|--7-----5-----2-----2--|--7-----5-----2-----2--|
E|-----------------------|-----------------------|

E|--------------2-----2--|--------------2--------|
B|--------------3-----3--|--------------3-----2--|
G|--9-----7-----4-----4--|--9-----7-----4-----3--|
D|--9-----7-----4-----4--|--9-----7-----4-----4--|
A|--7-----5-----2-----2--|--7-----5-----2-----4--|
E|-----------------------|--------------------2--|

Guitar 1:

E|--14-12-------------12-----------|
B|--------15-14----14----15-14-12--|
G|--------------14-----------------|
D|---------------------------------|
A|---------------------------------|
E|---------------------------------|

I thought, I found a way to enter
It's just a reflektor
I thought, I found the connector
It's just a reflektor

Interlude 1:

E|-----------------------|
B|--------------9-----8--|
G|--------------9-----9--|
D|--9-----9-----9-----9--|
A|--9-----9-----7-----7--|
E|--7-----7--------------|

Just a reflection, of a reflection
Will I see you on the other side?
We all got things to hide

Verse:

E|--14--12--10---------------------|
B|--------------14--12--10---------|
G|--------------------------11-----|
D|------------------------------9--|
A|---------------------------------|
E|---------------------------------|

Chorus: same as the second one

I thought, I found a way to enter
It's just a reflektor
I thought, I found the connector
It's just a reflektor

Interlude 2:

Guitar 2:

E|-----------------------|
B|-----------------------|
G|--9-----7-----4--------|
D|--9-----7-----4-----4--|
A|--7-----5-----2-----4--|
E|--------------------2--|

Guitar 1:

E|-----------------|-----------------| |--------------------------------|
B|-----------------|-----------------| |--11----------------------------|
G|-----------------|-----------------| |-----12-11-9--------------------|
D|-----------------|--11-9-----------| |--------------12-11-9-----------|
A|--12-10-9--------|--------12-10-9--| |-----------------------12-10-9--|
E|-----------12-10-|-----------------| |--------------------------------|

Thought you would bring me the resurrector
Turns out it was just a reflektor

E|--14-14--14-12----12--------|--14-14--14-12----12--------|
B|---------------15-----------|---------------15----12-----|
G|---------------------14-----|----------------------------|
D|----------------------------|----------------------------|
A|----------------------------|----------------------------|
E|----------------------------|----------------------------|

E|--14-14--14-12----17-17-14--|--14-14--14-12----17-17-14--|
B|---------------15-----------|---------------15-----------|
G|----------------------------|----------------------------|
D|----------------------------|----------------------------|
A|----------------------------|----------------------------|
E|----------------------------|----------------------------|

Just a reflektor

Guitar 2:

E|-----------10-12-----|-----------10-12-14--|
B|--10-12-14-----------|--10-12-14-----------|
G|-----------------11--|---------------------|
D|---------------------|---------------------|
A|---------------------|---------------------|
E|---------------------|---------------------|

Guitar 1:

E|------------------|-----------12-----|------------------|------------------|
B|--12-12-12-14-----|--15-15-15----12--|--12-12-12--------|--------------12--|
G|--------------14--|------------------|-----------14-15--|--15-15-15-15-----|
D|------------------|------------------|------------------|------------------|
A|------------------|------------------|------------------|------------------|
E|------------------|------------------|------------------|------------------|

Will I see you on the other side?
We all got things to hide


So... This is how I think the song goes...
If you have any idea of how to improve this tab let me know,
I really hope I've helped you
Thanks!!!
            
Submit corrections


        Reflektor lessons Hard to play? Try these video lessons and learn fast Reflektor lessons
        
↑ Back to top | Tablatures and chords for acoustic guitar and electric guitar, ukulele, drums are parodies/interpretations of the original songs. You may use it for private study, scholarship, research or language learning purposes only