» » »

Arcade Fire - Neighbourhood 3 Power Out Tabs

Artists:  A B C D E F G H I J K L M N O P Q R S T U V W X Y Z # 

Neighbourhood 3 Power Out Tabs

(ver. 1) Click to play this song!
Arcade Fire
 Rating:
4/5 (4 votes)

 Neighbourhood 3 Power Out lessons Tabs too difficult? Try these video lessons and learn fast
 
                ------------------------------------------------------------
	Neighbourhood #3 (Power Out) - The Arcade Fire
------------------------------------------------------------

Tuning: Standard EADGBE



Intro: Dm F Dm F

Verse: 

(A)
I woke up with the power out,
not really something to shout about.
(D)

(A)
Ice has covered up my parents hands
don't have any dreams don't have any plans.
(D)

(Bb)
I went out into the night,
I went out to find some light.
(F)

(Bb)
Kids are swingin' from the power lines,
nobody's home, so nobody minds.
(F)

(A)
I woke up on the darkest night,
neighbors all were shoutin' that they found the light.
(D)

(A)
Shadows jumpin' all over the walls
some of them big, some of them small.
(D)

(Bb)
I went out into the night.
I went out to pick a fight with anyone.
(F)

(Bb)
Light a candle for the kids,
Jesus Christ don't keep it hid!
(Dm)
Woohoo!(F) Woohoo!(Dm) Woohoo!(F)

(A)
Ice has covered up my parents hands
don't have any dreams, don't have any plans.
(D)

(A)
Growin' up in some strange storm,
nobody's cold, nobody's warm.
(D)

(Bb)
I went out into the night,
I went out to find some light.
(F)

(Bb)
Kids are dyin' out in the snow,
look at them go, look at them go!
(Dm)

Woohoo!(F) Woohoo!(Dm) Woohoo!(F)

Dm, F, Dm, F
*Solo Riff*
e|---------------------------------------------------|
B|---------------------------------------------------|
G|---------------------------------------------------|
D|---------------------------------------------------|
A|-8-7-5-3-1-0-1-0-1--8-7-5-3-1-0-1-0-1--------------|
E|---------------------------------------------------|

e|---------------------------------------------------|
B|---------------------------------------------------|
G|---------------------------------------------------|
D|---------------------------------------------------|
A|-0-1-3-5-7-0-7-0-7--0-1-3-5-7-0-7-0-7--------------|
E|---------------------------------------------------|


Gm        F      Bb         Am      Gm
And the power's out in the heart of man,
          F        Bb       Am
take it from your heart put in your hand.

(No Guitar)
What's the plan? What's the plan?

(Bb)
Is it a dream? Is it a lie?
I think I'll let you decide.
(F)

(Bb)
Just light a candle for the kids,
Jesus Christ don't keep it hid!
(Dm)

               (F)          (Dm)
Cause nothin's hid, from us kids!
                    (F)
You ain't foolin' nobody with the lights out!
(Dm) Woohoo!(F) Woohoo!(Dm) Woohoo!(F) 

*Solo Riff*
e|---------------------------------------------------|
B|---------------------------------------------------|
G|---------------------------------------------------|
D|---------------------------------------------------|
A|-8-7-5-3-1-0-1-0-1--8-7-5-3-1-0-1-0-1--------------|
E|---------------------------------------------------|

e|---------------------------------------------------|
B|---------------------------------------------------|
G|---------------------------------------------------|
D|---------------------------------------------------|
A|-0-1-3-5-7-0-7-0-7--0-1-3-5-7-0-7-0-7--------------|
E|---------------------------------------------------|


Gm        F     Bb          Am       Gm
And the power's out in the heart of man,
         F         Bb       Am       Gm
take it from your heart put in your hand.
      F                 Bb           Am      Gm
And there's something wrong in the heart of man,

          F        Bb              Am       Dm
Take it from your heart and put it in your hand!

(Keep the chorus progression going, end on Dm)


*Solo Riff*
e|---------------------------------------------------|
B|---------------------------------------------------|
G|---------------------------------------------------|
D|---------------------------------------------------|
A|-8-7-5-3-1-0-1-0-1--8-7-5-3-1-0-1-0-1--------------|
E|---------------------------------------------------|

e|---------------------------------------------------|
B|---------------------------------------------------|
G|---------------------------------------------------|
D|---------------------------------------------------|
A|-0-1-3-5-7-0-7-0-7--0-1-3-5-7-0-7-0-7--------------|
E|---------------------------------------------------|


This tab is dedicated to Neil and Sean

Matty C <3
            
Submit corrections


        Neighbourhood 3 Power Out lessons Hard to play? Try these video lessons and learn fast Neighbourhood 3 Power Out lessons
        
↑ Back to top | Tablatures and chords for acoustic guitar and electric guitar, ukulele, drums are parodies/interpretations of the original songs. You may use it for private study, scholarship, research or language learning purposes only