Home » A » April Wine »

April Wine - Just Between You And Me Chords

Artists:  A B C D E F G H I J K L M N O P Q R S T U V W X Y Z # 

Just Between You And Me Chords

(ver. 2) Click to play this song!
April Wine
 Rating:
3.7/5 (23 votes)
                Intro:
  G        Bm       C               Em       D          C                 G 
e|-----------------|---------------|-7-8-10--8-7-------|-----------------|---------------|
B|----8-10-8----8-10^13------------|-------------10-8--|10^11------------|---------------|
G|-/9---------/9---|---------------|------------------9|------9-----9\7/9\7~-------------|
D|-----------------|---------------|-------------------|-----------------|---------------|
A|-----------------|---------------|-------------------|-----------------|---------------|
E|-----------------|---------------|-------------------|-----------------|---------------|

Verse:
G              Bm     C
Time and time again I see
                   G          Em           Am    D
A love that seemed strong was not meant to be,
G                   Bm     C
Broken hearts don't always mend,
Eb         G       Em        Am         D
Left too unsure to try love again.

                            |----------2-----|
                            |1---------3-----|
                            |2---0-2h4p2-----|
                            |2-4-------0-----|
                            |0---------------|
                            |----------------|

Chorus:
G            D       C         G        C    Bm   C
Just between you and me baby I know our love will be
G            Bm      C   D        G        C    Bm   C
Just between you and me, always I know our love will be
F                    
Just between you and me

  G       Bm        C               Em       D           C                
e|--2-3-5-3-2-----2|---------------|--------------------|-----------------|
B|------------3----|5~------5\3/5\3|---------1p0---0----|-----------------|
G|--------------4--|---------------|-------------0---0--|-----------------|
D|-----------------|---------------|-------------------0|-----------------|
A|-----------------|---------------|--------------------|3----------------|
E|-----------------|---------------|--------------------|-----------------|

Verse:
G            Bm      C
Lovers often seem to say
              G        Em        Am      D
Hearts can be blind to love gone astray,
G              Bm       C
Always its the same old song,
Eb             G       Em               Am         D
Someone's been hurt by love that's gone wrong.

                                      |----------2-----|
                                      |1---------3-----|
                                      |2---0-2h4p2-----|
                                      |2-4-------0-----|
                                      |0---------------|
                                      |----------------|

Chorus:
G            D       C         G        C    Bm   C
Just between you and me baby I know our love will be
G            Bm      C   D        G        C    Bm   C
Just between you and me, always I know our love will be
F                    
Just between you
C                    G
Just between you and me

Solo: 
G  D  C  Em  D  C
G  D  C  Em  D  C

Verse:
G                   Bm      C
Words are sometimes hard to find
G               Bm      C
The silence can be so unkind
G                  Bm      C
You always help me find my way
Eb               G           Em            Am     D
The love that we share grows stronger each day

Chorus:
     G            D       C         G        C    Bm   C
But, just between you and me baby I know our love will be
G            Bm      C   D        G        C    Bm   C
Just between you and me, always I know our love will be
G                D      C                   G         C Bm   C
"Seulement entre toi et moi" means that our love will always be
G             Bm      C   D      G        C    Bm   C
"Just between you and me" baby I know our love will be,
F                    
Just between you
C                    G
Just between you and me

  G       D        C      D        G                                            
e|7-----7-5------5|3----3-5-------|3-------------------|
B|--8-------7-----|----------7----|3-------------------|
G|7---7---7---7---|5------7----7-5|4-------------------|
D|----------------|---------------|5-------------------|
A|----------------|---------------|5-------------------|
E|----------------|---------------|3-------------------|
            
Submit corrections

↑ Back to top | Tablatures and chords for acoustic guitar and electric guitar, ukulele, drums are parodies/interpretations of the original songs. You may use it for private study, scholarship, research or language learning purposes only