Home » A » April Wine »

April Wine - Just Between You And Me Tabs

Artists:  A B C D E F G H I J K L M N O P Q R S T U V W X Y Z # 

Just Between You And Me Tabs

(ver. 2) Click to play this song!
April Wine
 Rating:
4/5 (4 votes)
                This is one of my all time favorites for nice, melodic lead work, and one of
the first solos I actually learned all the way through (a long time ago!!).
Haven't listened to the original song in a while, but it's one of the ones 
you don't forget ... they should be pretty close.  I just wanted to add to the
existing song tab.  My intro and outro are a little different than above, and I 
added the little lick going into each chorus. 


Intro solo:

--------------------|-------|---7-8-10-8-7--------|--------------------|---|--
-3-----8-10-8-----8-|-10/12-|--------------10-8---|-10b12r10-----------|---|--
-4--/9----------9---|-------|-------------------9-|----------9---9-7-9-|-7-|--
-5------------------|-------|---------------------|--------------------|---|--
-5------------------|-------|---------------------|--------------------|---|--
-3------------------|-------|---------------------|--------------------|---|--
                                                                              

Second solo:  (short one after 1st chorus)

--------------------|------------|-------------------|-----|------------------
---7-8-10-8-7-------|------------|-------------------|-----|------------------
-7------------9-7---|-9----9-7-9-|-7---5p4-4---5p4---|-----|------------------
------------------9-|------------|-----------------5-|-----|------------------
--------------------|------------|-------------------|--3--|------------------
--------------------|------------|-------------------|-----|------------------
                                                                              

Main solo:   (long one after 2nd chorus)

-------10-10--------10-10------10-|12-|-15b17--15-12-----------------|----|---
-10/12--------10/12-------10/12---|---|--------------15-12h15p12-----|----|---
----------------------------------|---|---------------------------14-|-12-|---
----------------------------------|---|------------------------------|----|---
----------------------------------|---|------------------------------|----|---
----------------------------------|---|------------------------------|----|---
                                                                              

-------------------------------------------|-12-|-----15-19-------19p15-------
-12-13-15-13-12-------------------15-------|----|-/17-------17----------17----
----------------14-12----12--14b16---16r14-|----|-----------------------------
----------------------14-------------------|----|-----------------------------
-------------------------------------------|----|-----------------------------
-------------------------------------------|----|-----------------------------
                                                                              

-19p15------19p15------19p15----|-19b20---20r19---19-17-15-------|----|-------
-------17---------17---------17-|--------------------------15h17-|-15-|-------
--------------------------------|--------------------------------|----|-------
--------------------------------|--------------------------------|----|-------
--------------------------------|--------------------------------|----|-------
--------------------------------|--------------------------------|----|-------
                                                                              

Nice little outro:

-7-----7----5-----5-|-3--3/5---------|--3-----|-------------------------------
---8----------7-----|-5------7-------|--0-----|-------------------------------
-----7----------7---|-5--------7--5\-|--0-----|-------------------------------
--------------------|----------------|--------|-------------------------------
--------------------|----------------|--------|-------------------------------
--------------------|----------------|--------|-------------------------------
                                                                              

Turnaround lick  (at the end of each verse over Am - D ... into chorus)

----------------2--|----------------------------------------------------------
----------------3--|----------------------------------------------------------
----------------2--|----------------------------------------------------------
--------0h2--0--0--|----------------------------------------------------------
--0-2-3------------|----------------------------------------------------------
-------------------|----------------------------------------------------------
                                                                              
            
Submit corrections

↑ Back to top | Tablatures and chords for acoustic guitar and electric guitar, ukulele, drums are parodies/interpretations of the original songs. You may use it for private study, scholarship, research or language learning purposes only