» » »

Antimatter - Legions Tabs

Artists:  A B C D E F G H I J K L M N O P Q R S T U V W X Y Z # 

Legions Tabs

(ver. 1) Click to play this song!
Antimatter
 Rating:
4/5 (4 votes)

 Legions lessons Tabs too difficult? Try these video lessons and learn fast
 
                -------------------------------------------------------------------------------
                             Antimatter - Legions
-------------------------------------------------------------------------------

Tuning: Standard, Capo on 2nd fret


One of the reasons this song is so beautiful is that it is quite unpredictable, so
why I preferred to just tab out the whole song. The other tabs I've seen don't capture the
song, just parts of it. It could be easier to memorize by trying to group some of the 
logically and associating them with the lyrics.

The best thing to remember is that the fretting is basically the same throughout the
it's just the bass notes that change from time to time. Oh, and beware of finger cramps!
here we go:

e|--------------------------------------------------------------------------|
B|-----------1------------1-------------1-------------1-------------1-------|
G|---------4---4--------4---4---------4---4---------4---4---------4---4-----|
D|-------2-------2----2-------2-----2-------2-----2-------2-----2-------2---|
A|-----0-----------0-------------0-------------0-------------0--------------|
E|--------------------------------------------------------------------------|

                                                            Stony and grey..
e|--------------------------------------------------------------------------|
B|-----------1------------1-------------1-------------1-------------1-------|
G|---------4---4--------4---4---------4---4---------4---4---------4---4-----|
D|-------2-------2----2-------2-----2-------2-----2-------2-----2-------2---|
A|-----0-----------0-------------0-------------0-------------0--------------|
E|--------------------------------------------------------------------------|

                                  ..is the whore
e|--------------------------------------------------------------------------|
B|-----------1------------1-------------1-------------1-------------1-------|
G|---------4---4--------4---4---------4---4---------4---4---------4---4-----|
D|-------2-------2----2-------2-----2-------2-----2-------2-----2-------2---|
A|-----3-----------3--------------------------------------------------------|
E|--------------------------------0------------0-------------0--------------|

                              And long are the days..
e|--------------------------------------------------------------------------|
B|-----------1------------1-------------1-------------1-------------1-------|
G|---------4---4--------4---4---------4---4---------4---4---------4---4-----|
D|-------2-------2----2-------2-----2-------2-----2-------2-----2-------2---|
A|-----------------0-------------0-------------3-------------3--------------|
E|-----0--------------------------------------------------------------------|

     ..in the morgue
e|--------------------------------------------------------------------------|
B|-----------1------------1-------------1-------------1-------------1-------|
G|---------4---4--------4---4---------4---4---------4---4---------4---4-----|
D|-------2-------2----2-------2-----2-------2-----2-------2-----2-------2---|
A|-----------------------------------------------------------0--------------|
E|-----0------------0-------------0------------0----------------------------|

       Where God is a wall..
e|--------------------------------------------------------------------------|
B|-----------1------------1-------------1-------------1-------------1-------|
G|---------4---4--------4---4---------4---4---------4---4---------4---4-----|
D|-------2-------2----2-------2-----2-------2-----2-------2-----2-------2---|
A|-----0-----------3-------------3------------------------------------------|
E|---------------------------------------------0-------------0--------------|

                                             Where God is a wall..
e|--------------------------------------------------------------------------|
B|-----------1------------1-------------1-------------1-------------1-------|
G|---------4---4--------4---4---------4---4---------4---4---------4---4-----|
D|-------2-------2----2-------2-----2-------2-----2-------2-----2-------2---|
A|-----------------------------0-------------0---------------3--------------|
E|-----0------------0-------------------------------------------------------|

                                               ..To look upon
e|----------------------------------------------------0-------------0-------|
B|-----------1------------1-------------1-----------------1-------------1---|
G|---------4---4--------4---4---------4---4---------4---4---------4---4-----|
D|-------2-------2----2-------2-----2-------2----2--------------2-----------|
A|-----3-----------------------------------------------------0--------------|
E|-----------------0-------------0-------------3----------------------------|

       Legions and hordes...
e|-----------0---------------0---------------0--------------0---------------|
B|----------------1---------------1--------------1---------------1----------|
G|---------4---4-----------4---4-----------4---4----------4---4-------------|
D|------2---------------2---------------2--------------2--------------------|
A|--------------------------------------------------------------------------|
E|---0---------------0---------------3--------------3-----------------------|

     ..The seas have been torn                      ..And buildings remain
e|-----------0-------------------------------0--------------0---------------|
B|----------------1----------1----1--------------1---------------1----------|
G|---------4---4-----------4---4-----------4---4----------4---4-------------|
D|------2---------------2---------------2--------------2--------------------|
A|---3---------------0--------------0---------------3-----------------------|
E|--------------------------------------------------------------------------|

                    ..where they fall
e|-----------0-------------------------------0--------------0---------------|
B|----------------1----------1----1--------------1---------------1----------|
G|---------4---4-----------4---4-----------4---4----------4---4-------------|
D|------2---------------2---------------2--------------2--------------------|
A|---3----------------------------------------------------------------------|
E|------------------0---------------0----------------3----------------------|

                     ..And I solemnly walk
e|-----------0---------------0---------------0--------------0---------------|
B|----------------1---------------1--------------1---------------1----------|
G|---------4---4-----------4---4-----------4---4----------4---4-------------|
D|------2---------------2---------------2--------------2--------------------|
A|---0----------------------------------------------------------------------|
E|--------------------0---------------0--------------3----------------------|

                     ..through legions and hordes
e|-----------0---------------0---------------0--------------0---------------|
B|----------------1---------------1--------------1---------------1----------|
G|---------4---4-----------4---4-----------4---4----------4---4-------------|
D|------2---------------2---------------2--------------2--------------------|
A|-------------------3--------------0---------------0-----------------------|
E|---3----------------------------------------------------------------------|

    A dark mass of infidel..
e|-----------0---------------0---------------0--------------0---------------|
B|----------------1---------------1--------------1---------------1----------|
G|---------4---4-----------4---4-----------4---4----------4---4-------------|
D|------2---------------2---------------2--------------2--------------------|
A|---3----------------3-----------------------------------------------------|
E|-----------------------------------0---------------0----------------------|

e|-----------0---------------0------------------------------0---------------|
B|----------------1---------------1-----------1---1---------------1---------|
G|---------4---4-----------4---4-----------4---4----------4---4-------------|
D|------2---------------2---------------2--------------2--------------------|
A|--------------------------------------------------------------------------|
E|---0---------------0--------------0---------------0-----------------------|

                                                       Long is the howl..
e|---------------------------0----------------------------------------------|
B|-----------1----1---------------1---------------1----------------1--------|
G|---------4---4-----------4---4---------------4-----4----------4-----4-----|
D|------2---------------2--------------------2---------2-----2-----------2--|
A|---------------------------------------0----------------0-----------------|
E|----0--------------0------------------------------------------------------|

                    ..At the end..
e|--------------------------------------------------------------------------|
B|-----------1------------1-------------1-------------1-------------1-------|
G|---------4---4--------4---4---------4---4---------4---4---------4---4-----|
D|-------2-------2----2-------2-----2-------2-----2-------2-----2-------2---|
A|-----3-----------3--------------------------------------------------------|
E|-------------------------------0-------------0-------------0--------------|

                                ..A cry from the tail
e|-----------0-----------------------------------------------------0--------|
B|---------------1-------1-------------1-------------1-----------------1----|
G|---------4---4-------4---4---------4---4---------4---4---------4---4------|
D|------2------------2-------2-----2-------2-----2-------2-----2------------|
A|-----------------0-------------0-------------3-------------3--------------|
E|---0----------------------------------------------------------------------|

       ..Echoing..
e|--------------------------------------------------------------------------|
B|-----------1------------1-------------1-------------1-------------1-------|
G|---------4---4--------4---4---------4---4---------4---4---------4---4-----|
D|-------2-------2----2-------2-----2-------2-----2-------2-----2-------2---|
A|-----------------------------------------------------------0--------------|
E|-----0-----------0-------------0-------------0----------------------------|

       ..And fools reverberate..
e|------------------------0-----------------------------------------0-------|
B|-----------1-----------------1--------1-------------1-------------------1-|
G|---------4---4--------4---4---------4---4---------4---4---------4---4-----|
D|-------2-------2----2-------------2-------2-----2-------2-----2-----------|
A|-----0-----------3-------------3------------------------------------------|
E|----------------------------------------------0-------------0-------------|

                                               ..And fools reverberate...
e|------------------------0-------------------------------------------------|
B|-----------1------------------1--------1-------------1-------------1------|
G|---------4---4--------4---4---------4---4---------4---4---------4---4-----|
D|-------2-------2----2-------------2-------2-----2-------2-----2-------2---|
A|--------------------------------0-------------0-------------3-------------|
E|-----0-----------0--------------------------------------------------------|

                                               ..And carry on...
e|------------------------0-------------0-------------0-------------0-------|
B|-----------1---1------------1-------------1--------------1-----------1----|
G|---------4---4--------4---4---------4---4---------4---4---------4---4-----|
D|-------2------------2-------------2-------------2-------------2-----------|
A|-----3-----------------------------------------------------0--------------|
E|------------------0------------0-------------3----------------------------|

      ..Legions and hordes...                               ..The seas have
e|------------------------------------------------------------------0-------|
B|-----------1------------1-------------1-------------1---1-------------1---|
G|---------4---4--------4---4---------4---4---------4---4---------4---4-----|
D|-------2-------2----2-------2-----2-------2-----2-------------2-----------|
A|------------------------------------------------------------3-------------|
E|-----0------------0-------------3------------3----------------------------|

  been torn..                    ..And buildings remain where they fall..
e|------------------------------------------------------------------0-------|
B|-----------1------------1-------------1-------------1---1-------------1---|
G|---------4---4--------4---4---------4---4---------4---4---------4---4-----|
D|-------2-------2----2-------2-----2-------2-----2-------------2-----------|
A|-----0-----------0-------------3-------------3----------------------------|
E|-----------------------------------------------------------0--------------|

                                        ..And I solemnly walk..
e|-----------0------------0-------------0-----------------------------------|
B|---------------1------------1-------------1---------1-------------1-------|
G|---------4---4--------4---4---------4---4---------4---4---------4---4-----|
D|-------2------------2-------------2-------------2-------2-----2-------2---|
A|-------------------------------0------------------------------------------|
E|-----0-----------3---------------------------0--------------0-------------|

                                ..Through legions and hordes..
e|--------------------------------------------------------------------------|
B|-----------1------------1-------------1---1---------1-------------1-------|
G|---------4---4--------4---4---------4---4---------4---4---------4---4-----|
D|-------2-------2----2-------2-----2-------------2-------2-----2-------2---|
A|-------------------------------3-------------0-------------0--------------|
E|-----3-----------3--------------------------------------------------------|


e|--------------------------------------------------------------------------|
B|-----------1------------1-------------1-------------1--------------1------|
G|---------4---4--------4---4---------4---4---------4---4----------4---4----|
D|-------2------------2------------2-------------2---------2-----2----------|
A|-----0---------0-0-----------0-0-----------0-0-------------0-----------0-0|
E|--------------------------------------------------------------------------|


e|--------------------------------------------------------------------------|
B|------1------------1-------------1-------------1-------------1------------|
G|----4---4--------4---4---------4---4---------4---4---------4---4----------|
D|--2-------2----2-------2-----2-------2-----2-------2-----2-------2--------|
A|------------0-------------0-------------0-------------0-------------------|
E|--------------------------------------------------------------------------|

->play softer and softer
e|--------------------------------------------------------------------------|
B|-----------1------------1-------------1-------------1---------------------|
G|---------4---4--------4---4---------4---4---------4---4-------------------|
D|-------2-------2----2-------2-----2-------2-----2-------2-----------------|
A|-----0-----------0-------------0-------------0----------------------------|
E|--------------------------------------------------------------------------|

->begin forte
e|--------------------------------------------------------------------------|
B|-----------1------------1-------------1-------------1-------------1---1---|
G|---------4---4--------4---4---------4---4---------4---4---------4---4-----|
D|-------2-------2----2-------2-----2-------2-----2-------2-----2-----------|
A|-----3-----------3--------------------------------------------------------|
E|-------------------------------0-------------0-------------3--------------|


e|------------------------------------------------------------------0-------|
B|-----------1---1--------1---1---------1---1---------1---1-------------1---|
G|---------4---4--------4---4---------4---4---------4---4---------4---4-----|
D|-------2------------2-------------2-------------2-------2-----2-----------|
A|------------------3------------3------------------------------------------|
E|-----3---------------------------------------0--------------0-------------|


e|-------------------------0------------------------------------------------|
B|-----------1----1------------1---------1-------------1-------------1------|
G|---------4---4---------4---4---------4---4---------4---4---------4---4----|
D|-------2-------------2------------2--------2-----2-------2-----2-------2--|
A|-------------------------------3--------------3---------------------------|
E|-----3-------------3----------------------------------------0-------------|


e|--------------------------------------------------------------------------|
B|-----------1------------1-------------1-------------1-------------1-------|
G|---------4---4--------4---4---------4---4---------4---4---------4---4-----|
D|-------2-------2----2-------2-----2-------2-----2-------2-----2-------2---|
A|---------------------------------------------3-------------3--------------|
E|-----0------------3------------3------------------------------------------|


e|--------------------------------------------------------------------------|
B|-----------1------------1-------------1-------------1-------------1-------|
G|---------4---4--------4---4---------4---4---------4---4---------4---4-----|
D|-------2-------2----2-------2-----2-------2-----2-------2-----2-------2---|
A|-----------------------------------------------------------3--------------|
E|-----0------------0------------3-------------3----------------------------|


e|--------------------------------------------------------------------------|
B|-----------1------------1-------------1-------------1-------------1-------|
G|---------4---4--------4---4---------4---4---------4---4---------4---4-----|
D|-------2-------2----2-------2-----2-------2-----2-------2-----2-------2---|
A|-----3--------------------------------------------------------------------|
E|------------------0------------0-------------3-------------3--------------|


e|--------------------------------------------------------------------------|
B|-----------1------------1-------------1-------------1-------------1-------|
G|---------4---4--------4---4---------4---4---------4---4---------4---4-----|
D|-------2-------2----2-------2-----2-------2-----2-------2-----2-------2---|
A|-----3------------3-------------------------------------------------------|
E|-------------------------------0-------------0-------------3--------------|


e|--------------------------------------0-------------0-------------0-------|
B|-----------1------------1------------------1------------1--------------1--|
G|---------4---4--------4---4---------4---4---------4---4---------4---4-----|
D|-------2-------2----2-------2-----2------------2-------------2------------|
A|------------------3------------3------------------------------------------|
E|-----3---------------------------------------0-------------0--------------|


e|-----------0------------0-------------0---------------0------|
B|---------------1------------1-------------1----------------1-|
G|---------4---4--------4---4---------4---4-----------4----4---|
D|-------2------------2-------------2---------------2----------|
A|-------------------------------3---------------3-------------|
E|-----3------------3------------------------------------------|


This is where you can either continue with the pattern above (A3, E0, E3 as bass notes)
the song ends or strum Em, G and C:

Em              G         C
What have they done to themselves?
Em               G          C
Look what they've done to themselves.

Em                                    G
If you don't learn to leave this thing alone
                             C
You'll never get to see the sun again
                    Em
You won't come out on top
            G         C
The seed is sown

Keep up the pattern til the end. This is it, it took a long time, but loving this song
much makes it all worthwhile... Hope you enjoy, and lest I forget, rock on!
            
Submit corrections


        Legions lessons Hard to play? Try these video lessons and learn fast Legions lessons
        
↑ Back to top | Tablatures and chords for acoustic guitar and electric guitar, ukulele, drums are parodies/interpretations of the original songs. You may use it for private study, scholarship, research or language learning purposes only