Home » A » Anthony Hamilton »

Anthony Hamilton - Dear Life Tabs

Artists:  A B C D E F G H I J K L M N O P Q R S T U V W X Y Z # 

Dear Life Tabs

(ver. 1) Click to play this song!
Anthony Hamilton
(Intro)
Its not perfect because theres two guitars and ones playing the rhythm and ones 
playing the lead but
 I attempted to put the two together so you can play it solo but the rest of the song is just
 the same style of playing as the start of song. Sounds best played on a Classical 
guitar so you can get that Flamenco Spanish sound. Best way to play it is to listen to the song
and improvise the rhythm and lead together and it should sound pretty good.

e|--7---5---3---2/3------------------------0--------3--3/5--3---2h3p2--2---------2-2h3p2-|
B|--8---7---5---3/5--------------0------------------5--5/7--5----------3-------3---------|
G|-------------------------0-----------0-------------------------------2-----2-----------|
D|-----------------------2----2-----2----2----2------------------------0---0-------------|
A|---------------------------------------------------------------------------------------|
E|-------------------0-------------------------------------------------------------------|

e|--------0------x--0--0----3---2-0---2--2h3p2---|
B|--------1------x--1--1----5---3-----0----------|
G|--------0------x--0--0--------------2----------|
D|-----2---------x--2-----------------1----------|
A|---3-----------x--3-----------------2----------|
E|-----------------------------------------------|
            
Submit corrections

↑ Back to top | Tablatures and chords for acoustic guitar and electric guitar, ukulele, drums are parodies/interpretations of the original songs. You may use it for private study, scholarship, research or language learning purposes only