» » »

Anthony Green - Lullaby I Want To Murder You And Bury You In My Back Yard Tabs

Artists:  A B C D E F G H I J K L M N O P Q R S T U V W X Y Z # 

Lullaby I Want To Murder You And Bury You In My Back Yard Tabs

(ver. 3) Click to play this song!
Anthony Green
 Rating:
1.9/5 (29 votes)

 Lullaby I Want To Murder You And Bury You In My Back Yard lessons Tabs too difficult? Try these video lessons and learn fast
 
                
Intro:

E|---------------------------------------------------|
A|---------------------------------------------------|
D|---------------------------------------------------|
G|---------------------------------------------------|
B|-----8------8--------------------8------8----------|
e|10-7---10-7---7-8-7-5-7-5---10-7---10-7---7-8-8-7-5|


Verse:

Just rest your eyes, if they're getting heavy. Rest your, head on, my pillow. 
E|---------------------------------------------------|
A|---------------------------------------------------|
D|---------------------------------------------------|
G|---------------------------------------------------|
B|-----8------8--------------------8------8----------|
e|10-7---10-7---7-8-7-5-7-5---10-7---10-7---7-8-8-7-5|

If you, want, I, could keep singing softly. Or you could try, counting sheep.
E|-----------------------------------------------------------|
A|-----------------------------------------------------------|
D|-----------------------------------------------------------|
G|-----------------------------------------------------------|
B|-----8------8--------------------8-------------------------|
e|10-7---10-7---7-8-7-5-7-5---10-7---10-8-7-5-----12-14-15-14|


Chorus:

Beautiful things, beautiful things, beautiful things are coming.
E|-----------------------------------------------------------------------|
A|-----------------------------------------------------------------------|
D|-----------------------------------------------------------------------|
G|-----------------------------------------------------------------------|
B|-----------------------------------------------------------------------|
e|15-15-17-12(10 7 8)---15-15-17-12(10 7 8)---15-15-14-12-10-12-14-15-14-|

Beautiful things, beautiful things, beautiful things are coming, to you.
E|-----------------------------------------------------------------------|
A|-----------------------------------------------------------------------|
D|-----------------------------------------------------------------------|
G|-----------------------------------------------------------------------|
B|-----------------------------------------------------------------------|
e|15-15-17-12(10 7 8)---15-15-17-12(10 7 8)---15-15-14-12-10-12-14-15-14-|


Instrumental:

E|---------------------------------------------------|
A|---------------------------------------------------|
D|---------------------------------------------------|
G|---------------------------------------------------|
B|-----8------8--------------------8------8----------|
e|10-7---10-7---7-8-7-5-7-5---10-7---10-7---7-8-8-7-5|


Verse:

Just picture the sun, and its heat. Resting, upon, your finger tips.
E|---------------------------------------------------|
A|---------------------------------------------------|
D|---------------------------------------------------|
G|---------------------------------------------------|
B|-----8------8--------------------8------8----------|
e|10-7---10-7---7-8-7-5-7-5---10-7---10-7---7-8-8-7-5|

As it moves across, the rest of your body. Relax and keep, your mind at ease.
E|--------------------------------------------------------|
A|--------------------------------------------------------|
D|--------------------------------------------------------|
G|--------------------------------------------------------|
B|-----8------8--------------------8----------------------|
e|10-7---10-7---7-8-7-5-7-5---10-7---10-8-7-5--12-14-15-14|


Chorus:

Beautiful things, beautiful things, beautiful things are coming.
E|-----------------------------------------------------------------------|
A|-----------------------------------------------------------------------|
D|-----------------------------------------------------------------------|
G|-----------------------------------------------------------------------|
B|-----------------------------------------------------------------------|
e|15-15-17-12(10 7 8)---15-15-17-12(10 7 8)---15-15-14-12-10-12-14-15-14-|

Beautiful things, beautiful things, beautiful things are coming, to you.
E|-----------------------------------------------------------------------|
A|-----------------------------------------------------------------------|
D|-----------------------------------------------------------------------|
G|-----------------------------------------------------------------------|
B|-----------------------------------------------------------------------|
e|15-15-17-12(10 7 8)---15-15-17-12(10 7 8)---15-15-14-12-10-12-14-15-14-|

            
Submit corrections


        Lullaby I Want To Murder You And Bury You In My Back Yard lessons Hard to play? Try these video lessons and learn fast Lullaby I Want To Murder You And Bury You In My Back Yard lessons
        
↑ Back to top | Tablatures and chords for acoustic guitar and electric guitar, ukulele, drums are parodies/interpretations of the original songs. You may use it for private study, scholarship, research or language learning purposes only