» » »

Anthony Green - Baby Girl Tabs

Artists:  A B C D E F G H I J K L M N O P Q R S T U V W X Y Z # 

Baby Girl Tabs

(ver. 1) Click to play this song!
Anthony Green
 Rating:
4/5 (9 votes)


 Baby Girl lessons Tabs too difficult? Try these video lessons and learn fast
 
                so i took a look at some tabs and i found that they were sorta
wrong... i learned this song a loooong time ago, but i learned
parts of it from other tabs and corrected them myself here you
go

theres not a whole lot i can do to help with timing and rhythm
you really just have to "feel" the music

verse-4x
e|-0--0--0-0-0-0--0-0--|
B|-12-12-12121212-1212-|
G|-13-13-13131313-1313-|(x2)
D|-11-11-11111111-1111-|
A|-0--0--0-0-0-0--0-0--|
E|---------------------|

e|-0-0-00-0-0-0-0-00-0-0-|
B|-0-0-00-0-0-0-0-00-0-0-|
G|-9-9-99-9-9-8-8-88-8-8-|
D|-7-7-77-7-7-6-6-66-6-6-|
A|-9-9-99-9-9-7-7-77-7-7-|
E|-----------------------|

bridge-2x
e|-0-00-000-0-00-000-0-00-000-0-00-000-|
B|-0-00-000-0-00-000-0-00-000-0-00-000-|
G|-6-66-666-6-66-666-6-66-666-6-66-666-|
D|-4-44-444-4-44-444-4-44-444-4-44-444-|
A|-------------------------------------|
E|-------------------------------------|

e|-0-00-000-0-00-000-0-00-000-0-00-000-|
B|-0-00-000-0-00-000-0-00-000-0-00-000-|
G|-9-99-999-9-99-999-9-99-999-9-99-999-|
D|-7-77-777-7-77-777-7-77-777-7-77-777-|
A|-------------------------------------|
E|-------------------------------------|

do the verse another 4x
then the bridge another 2x
and continue the bridge like 16x for the outro
            
Submit corrections



        Baby Girl lessons Hard to play? Try these video lessons and learn fast Baby Girl lessons
        
↑ Back to top | Tablatures and chords for acoustic guitar and electric guitar, ukulele, drums are parodies/interpretations of the original songs. You may use it for private study, scholarship, research or language learning purposes only