Home » A » Anonymous »

Anonymous - Greensleeves Tabs

Artists:  A B C D E F G H I J K L M N O P Q R S T U V W X Y Z # 

Greensleeves Tabs

(ver. 3) Click to play this song!
Anonymous
                                GreenSleeves                                   



much and saw so many people looking for the TAB 
that I decided to work it out myself. I hope you enjoy it 
as much I do. Thanks to tedmrpotato for the video.
I am sorry if it´s not correctly written (though it sounds 
right to me). I never learnt music, am an autodidact so I 
did my best through trial and error with GuitarPro.


Pista 1



      E  S S S S S S S S S S    S S S S S S S S S S S S  
E||---0--3-------5---7-------|--8-7-5-------2-----------|
B||------------0-----------0-|------------3-----3-----3-|
G||*---------0-----------0---|----------2-----------2---|
D||*-------------------------|--------0-------0---0-----|
A||--------------------------|--------------------------|
E||--------0-------0---0-----|--------------------------|


  S S S S S S S S S S S S    S S S S S S S S S S S S  
--0-2-3-------0---0-------|--0---2-------------------|
------------1---------4---|--------------4-----------|
----------0-----0---0---0-|----0-----2-------4-------|
--------------------------|--------4---4---4---------|
--------3---------3-------|------2-----------2-3-2-0-|
--------------------------|--------------------------|


  S S S S S S S S S S S S    S S S S S S S S S S S S  
--0---3-------5---7-------|--8-7-5-------2-----------|
------------0-----------0-|------------3-----3-----3-|
----------0-----------0---|----------2-----------2---|
--------------------------|--------0-------0---0-----|
--------------------------|--------------------------|
--3-2---0-------0---0-----|--------------------------|


  S S S S T   T  T T S S S S S S    S S S S S S S S S S S S  
--0-2-3---2h-(3)-2-0-------------|--0-----------------------|
--------0------------4---2---4---|----------0-------------0-|
------0--------------------------|--------0---0---0-----0---|
-----------------------4---4---4-|------2-------2-----2-----|
---------------------2-----------|----2-------------2-------|
---------------------------------|--0---------------0-------|


      >                                                           
  E   S  S S S  S  S  S  S  S  S    S  S S  S S S S   S S  S S S  
-----10~-------10~---10~----9~---|--7~---5~----------------------|
-----12--------12----12----10----|--8----7--------7S~---3~-------|
--0------0-0-0-----0-----0-----0-|-----0----------7-----2--------|
---------------------------------|----------0-0-0-----0----0-0-0-|
---------------------------------|-------------------------------|
---------------------------------|-------------------------------|


  S S S S S S S S S S S S    S S S S S S S S S S S S  
--0-2-3-------0---0-------|--0---2-------------------|
------------1---------4---|--------------4-----------|
----------0-----0---0---0-|----0-----2-------4-------|
--------------------------|--------4---4---4---------|
--------3---------3-------|------2-----------2-3-2-0-|
--------------------------|--------------------------|


                                 >       >   >        
  S S S S S S S S S S S S    S S S S S S S S S S S S  
--------------------------|----------2---2-------2---|
------3-------3---3---2---|--------3---3---3---3---3-|
----------0---------------|--4---2-----------2-------|
--------0---0---0---0---0-|----0-0-------4---0-------|
--------------------------|--------------------------|
--3-2-3-----------3-------|--------------------------|


  S S S S S S S. S. S. S.    S. S. E.  E.  S. S.      S. S. S. S. S. S. S. S.  
----------0---0-----------|------------0----------||--------------0-----0-----|
--------1---1----1--------|--0--0--0--------------||-----------1-----1-----1--|
------0----------------2--|----------------------*||--------0-----------------|
--2-4---------2-----1-----|--------1----------2--*||--2--4--------------2-----|
--------------------------|-----4----------2------||--------------------------|
--------------------------|------------0----------||--------------------------|


                                v                  
  S. S. S. S. E.  E.     E.     H         S        
------------------0---|------<>12---------L-|----||
--------0--0--0-------|------<>12---------L-|----||
-----2----------------|------<>12---------L-|----||
--1-----------1-------|---------------------|----||
-----------4----------|---------------------|----||
------------------0---|--L------------------|----||




Duration Legend
---------------
W - whole
H - half
Q - quarter
E - 8th
S - 16th
T - 32nd
X - 64th
. - note dotted
|-n-|  - n-tuplets


Tablature Legend
----------------
L - tied note
x - dead note
g - grace note
(n) - ghost note
> - accentuded note
NH - natural harmonic
AH - artificial harmonic
TH - tapped harmonic
SH - semi harmonic
PH - pitch harmonic
h - hammer on
p - pull off
b - bend
br - bendRelease
pb - preBend
pbr - preBendRelease
brb - bendReleaseBend
\n/ - tremolo bar dip
\n - tremolo bar dive
-/n - tremolo bar Release up
/n\ - tremolo bar inverted dip
/n - tremolo bar return
-\n - tremolo bar Release down
S - shift slide
s - legato slide
/ -  slide into from below or out of upwards
\ -  slide into from above or out of downwards
~ - vibrato
W - wide vibrato
tr - trill
TP - tremolo picking
T - tapping
S - slap
P - pop
< - fade in
^ - brush up
v - brush down
            
Submit corrections

↑ Back to top | Tablatures and chords for acoustic guitar and electric guitar, ukulele, drums are parodies/interpretations of the original songs. You may use it for private study, scholarship, research or language learning purposes only