Home » A » An Endless Sporadic »

An Endless Sporadic - Impulse Tabs

Artists:  A B C D E F G H I J K L M N O P Q R S T U V W X Y Z # 

Impulse Tabs

(ver. 3) Click to play this song!
An Endless Sporadic
 Rating:
2.9/5 (23 votes)
                
2:42 (Progressive part)

E|------------------------------------------------------------------------|
B|------------------7-6-5-4-----------------------------------------------|
G|--------------------------7-6-5-----------------------------------------|
D|------------------------------------------------------------------------|
A|--2--------5---------------------2--------5----------1-----1------------|
E|-----4--2---------------------------4--2-------1--1-----1---------------|

2:46

E|---------------------------10-10-----10---10-10--10-10--10-10-10-----10-|
B|------------------7-6-5----9--9------9----9--9---9--9---9--9--9------9--|
G|---------------------------7--7------7----7--7---7--7---7--7--7------7--|
D|---------------------------------0-0----0------0------0----------0-0----|
A|--2--------5------------------------------------------------------------|
E|-----4--2---------------------------------------------------------------|

2:50

E|------------------------------------------------------------------------|
B|------------------------------------------------------------------------|
G|-------------------------------------------------6-7-9------------------|
D|----6---6---6---6---6---6---7---7---7---10-6-7-9------------------------|
A|--8---8---8---8---8---8---8---8---8---8------------------5~-------------|
E|------------------------------------------------------------4~--2~--1~--|

2:56

E|------------------------------------------------------------------------|
B|---------------------4-3-2-1---------------------------4-3-2-1----------|
G|--1-2-3-4-1-2-3-4--1---------4-3-2--1-2-3-4-1-2-3-4--1---------4-3-2----|
D|------------------------------------------------------------------------|
A|------------------------------------------------------------------------|
E|------------------------------------------------------------------------|

E|------------------------------------------------------------------------|
B|---------------------4-3-2-1---------------------------4-3-2-1----------|
G|--1-2-3-4-1-2-3-4--1---------4-3-2--1-2-3-4-1-2-3-4--1---------4-3-2----|
D|------------------------------------------------------------------------|
A|------------------------------------------------------------------------|
E|------------------------------------------------------------------------|


3:05

E|------------------------------------------------------------------------|
B|--14---12~~--------12----9~~--------------------------------------------|
G|------------------------------------------------------------------------|
D|--11---9~~---------9-----6~~--------------------------------------------|
A|------------------------------------------------------------------------|
E|------------------------------------------------------------------------|

3:11

E|-------------------------------------0-----------------------------------|
B|-----------------------------------0---------------------0---------------|
G|------1h2h4p2p1--------1---1---1h2-------1h2---------1h2---2-------------|
D|-------------------------------------------------------------------------|
A|-------------------------------------------------------------------------|
E|--2-2------------2-2-2---2---2---------2-----2-2-1-1---------------------|


E|----------------------0--------------------------------------------------|
B|--------------------0----------------------------------------------------|
G|--------1---1---1h2-------------1h2---------1h2h4p2p1--------------------|
D|-------------------------------------------------------------------------|
A|-------------------------------------------------------------------------|
E|--1-1-1---1---1---------1-1-1-1-----1-1-2-2------------------------------|


E|----------------------0--------------------------------------------------|
B|--------------------0---------------------0------------------------------|
G|--------1---1---1h2-------1h2---------1h2---2----------------------------|
D|-------------------------------------------------------------------------|
A|-------------------------------------------------------------------------|
E|--2-2-2---2---2---------2-----2-2-1-1------------------------------------|


E|----------------------0--------------------------------------------------|
B|--------------------0----------------------------------------------------|
G|--------1---1---1h2-------------1h2--------------------------------------|
D|-------------------------------------------------------------------------|
A|-------------------------------------------------------------------------|
E|--1-1-1---1---1---------1-1-1-1-----1-1----------------------------------|

3:30 (Solo)

E|-------14--------------14------------------------------------------------|
B|--17b------17b~~-----------17--15----14h15p14------14--------------------|
G|-----------------------------------------------16------------------------|
D|-------------------------------------------------------------------------|
A|-------------------------------------------------------------------------|
E|-------------------------------------------------------------------------|


E|------------5-9s12-9----9h10p9-------------------------------------------|
B|----------7----------10--------10----10----------------------------------|
G|--------6-------------------------11----11----11-------------------------|
D|------7------------------------------------12----12-11-9-----------------|
A|--5h9--------------------------------------------------------------------|
E|-------------------------------------------------------------------------|


E|-------------------------------------------------------------------------|
B|--9----------------------------------------------------------------------|
G|----------11------9------------------------------------------------------|
D|----12-11----11-9--------------9~----------------------------------------|
A|---------------------------11--------------------------------------------|
E|-------------------------------------------------------------------------|


E|-------------------------------------------------------------------------|
B|-------------------------------------------------------------------------|
G|-----------------11~-----------------------------------------------------|
D|--/11---12--14-----------14---12---11h12p11----11~-----------------------|
A|--------------------------------------------14---------14\---------------|
E|-------------------------------------------------------------------------|



E|--9s10-10-10-10s12-12-12-12s14-14-14-14s16-16-16-16s17-------------------|
B|-------------------------------------------------------------------------|
G|--6-7--7--7--7--9--9--9--9--11-11-11-11-13-13-13-13-14-------------------|
D|-------------------------------------------------------------------------|
A|-------------------------------------------------------------------------|
E|-------------------------------------------------------------------------|



E|--19h21p19h21p19h21p19h21p19h21p19h21~~~~~~------------------------------|
B|-------------------------------------------------------------------------|
G|-------------------------------------------------------------------------|
D|-------------------------------------------------------------------------|
A|-------------------------------------------------------------------------|
E|-------------------------------------------------------------------------|            
Submit corrections

↑ Back to top | Tablatures and chords for acoustic guitar and electric guitar, ukulele, drums are parodies/interpretations of the original songs. You may use it for private study, scholarship, research or language learning purposes only