Home » A » Anabantha »

Anabantha - Historia De Terror Tabs

Artists:  A B C D E F G H I J K L M N O P Q R S T U V W X Y Z # 

Historia De Terror Tabs

(ver. 1) Click to play this song!
Anabantha
2Veces

       cm#           A             E            G#
E||----------------------------------------------4--------------------|
A||--------------------------------2---------------6------------------|
D||-----6----------------------------2---------------6----------------|
G||-------6------6----2----------------1---------------5--------------|
B||---------4-5-4-------2-4---4-2--------0---0-----------4---4--------|
e||-------------------------0--------------0---------------4----------|

    cm#               A
   Soy cadaver de tu cementerio
           E                  G#
   al que nunca vas por que tienes miedo

    cm#                  A
   Me envenenaste con mentiras triste
    E                   G#
   o tal vez historias de terror

  B            cm#
   No salgas de noche
  B            cm#
   te pueden robar
  B            cm#
   un muerto te espia
            E                     G#
   desde el dia en que supo la verdad

  B            cm#
   No salgas de noche
  B            cm#
   te pueden robar
  B            cm#
   un muerto te espia
            E                     G#
   desde el dia en que supo la verdad

   cm#  c7#

    Fm#             B               E
   Pensaba que eras la mujer mas sincera
            A        G#               cm#  c7#
   la mas buena pero no eres la mas cruel
       Fm#       B
   te amaba y te amo
             E         A                 G#
   pero no puedo olvidar tu maldad acuerdate

  B               cm#
   No salgas de noche...

   cm#         A        E        G#
   nara nara nara
   cm#         A        E        G#
   nara na         uuuh uuuh

   cm#         A        E        G#
   nara nara nara
   cm#         A        E        G#
   nara na         uuuh uuuh



  2Veces

       cm#           A             E            G#
E||----------------------------------------------4--------------------|
A||--------------------------------2---------------6------------------|
D||-----6----------------------------2---------------6----------------|
G||-------6------6----2----------------1---------------5--------------|
B||---------4-5-4-------2-4---4-2--------0---0-----------4---4--------|
e||-------------------------0--------------0---------------4----------|

  cm# rasgueo hacia arriba

para comentarios, correcciones o si m kieren rayar la madre
            
Submit corrections

↑ Back to top | Tablatures and chords for acoustic guitar and electric guitar, ukulele, drums are parodies/interpretations of the original songs. You may use it for private study, scholarship, research or language learning purposes only