» » »

Amy Macdonald - This Is The Life Tabs

Artists:  A B C D E F G H I J K L M N O P Q R S T U V W X Y Z # 

This Is The Life Tabs

(ver. 1) Click to play this song!
Amy Macdonald
 Rating:
4.8/5 (19 votes)

 This Is The Life lessons Tabs too difficult? Try these video lessons and learn fast
 
                  Intro
    pm  pm  pm
e|---4---4--4----4--------0---------0--------0---------------|
B|---5---5--5----5--------2---------0--------4---------------|
G|---6---6--6----6--x8----2--x8-----1-x8-----5--x8-----------|
D|---6---6--6----6--------2---------2--------6---------------|
A|---4---4--4----4--------0---------2--------6---------------|
E|------------------------x---------0--------4---------------|

   Bridge
e|-----------------------------------------------------------|
B|-2-2-2-2-4-5-2-2-4-5-2-2-2-2-5-4-2-2-4-5--5-5-5-5-7-9-5-5-7|
G|-----------------------------------------------------------|
D|-----------------------------------------------------------|
A|-----------------------------------------------------------|
E|-----------------------------------------------------------|


e|-----------------------------------------------------------|
B|-9-7-5-4---------------------------------------------------|
G|-----------------------------------------------------------|
D|-----------------------------------------------------------|
A|-----------------------------------------------------------|
E|-----------------------------------------------------------|

    Outro
e|----4--------0---------0---------4----------4------------|
B|----5--------2---------0---------4----------5------------|
G|----6--x8----2--x8-----1--x8-----5--x8------6--let-ring--|
D|----6--------2---------2---------6----------6------------|
A|----4--------0---------2---------6----------4------------|
E|-------------x---------0---------------------------------|
            
Submit corrections


        This Is The Life lessons Hard to play? Try these video lessons and learn fast This Is The Life lessons
        
↑ Back to top | Tablatures and chords for acoustic guitar and electric guitar, ukulele, drums are parodies/interpretations of the original songs. You may use it for private study, scholarship, research or language learning purposes only