» » »

Amorphis - My Kantele Tabs

Artists:  A B C D E F G H I J K L M N O P Q R S T U V W X Y Z # 

My Kantele Tabs

(ver. 2) Click to play this song!
Amorphis
 Rating:
4/5 (4 votes)

 My Kantele lessons Tabs too difficult? Try these video lessons and learn fast
 
                My kantele                                    


Guitar1 


                                                            
D||--------------------------|-----------------------------|
A||--3-----------------3--3--|--------3--------------------|
F||--2-------0h2h0-----0-----|--0--------0-----------------|
C||--0----3---------3--2-----|-----2--------3--2h3h2h0--3--|
G||--------------------------|-----------------------------|
D||--------------------------|-----------------------------|


                                                      
--------------------------|--------------------------|
--------3--3--------3-----|--------------------3--3--|
--------2-----2--------2--|--2-------0h2h0-----0-----|
--2-----0--------0--------|--0----3---------3--2-----|
-----3--------------------|--------------------------|
--------------------------|--------------------------|


                                                         
-----------------------------|--------------------------|
--------3--------------------|--------3--3--------3-----|
--0--------0-----------------|--------2-----2--------2--|
-----2--------3--2h3h2h0--3--|--2-----0--------0--------|
-----------------------------|-----3--------------------|
-----------------------------|--------------------------|


                                                         
--------------------------|-----------------------------|
--------------------3--3--|--------3--------------------|
--2-------0h2h0-----0-----|--0--------0-----------------|
--0----3---------3--2-----|-----2--------3--2h3h2h0--3--|
--------------------------|-----------------------------|
--------------------------|-----------------------------|


                                                      
--------------------------|--------------------------|
--------3--3--------3-----|--------------------3--3--|
--------2-----2--------2--|--2-------0h2h0-----0-----|
--2-----0--------0--------|--0----3---------3--2-----|
-----3--------------------|--------------------------|
--------------------------|--------------------------|


                                                         
-----------------------------|--------------------------|
--------3--------------------|--------3--3--------3-----|
--0--------0-----------------|--------2-----2--------2--|
-----2--------3--2h3h2h0--3--|--2-----0--------0--------|
-----------------------------|-----3--------------------|
-----------------------------|--------------------------|


                                                         
--------------------------|-----------------------------|
--------------------3--3--|--------3--------------------|
--2-------0h2h0-----0-----|--0--------0-----------------|
--0----3---------3--2-----|-----2--------3--2h3h2h0--3--|
--------------------------|-----------------------------|
--------------------------|-----------------------------|


                                                      
--------------------------|--------------------------|
--------3--3--------3-----|--------------------3--3--|
--------2-----2--------2--|--2-------0h2h0-----0-----|
--2-----0--------0--------|--0----3---------3--2-----|
-----3--------------------|--------------------------|
--------------------------|--------------------------|


                                                         
-----------------------------|--------------------------|
--------3--------------------|--------3--3--------3-----|
--0--------0-----------------|--------2-----2--------2--|
-----2--------3--2h3h2h0--3--|--2-----0--------0--------|
-----------------------------|-----3--------------------|
-----------------------------|--------------------------|


                                                         
--------------------------|-----------------------------|
--------------------3--3--|--------3--------------------|
--2-------0h2h0-----0-----|--0--------0-----------------|
--0----3---------3--2-----|-----2--------3--2h3h2h0--3--|
--------------------------|-----------------------------|
--------------------------|-----------------------------|


                                                      
--------------------------|--------------------------|
--------3--3--------3-----|--------------------3--3--|
--------2-----2--------2--|--2-------0h2h0-----0-----|
--2-----0--------0--------|--0----3---------3--2-----|
-----3--------------------|--------------------------|
--------------------------|--------------------------|


                                                         
-----------------------------|--------------------------|
--------3--------------------|--------3--3--------3-----|
--0--------0-----------------|--------2-----2--------2--|
-----2--------3--2h3h2h0--3--|--2-----0--------0--------|
-----------------------------|-----3--------------------|
-----------------------------|--------------------------|


                                                         
--------------------------|-----------------------------|
--------------------3--3--|--------3--------------------|
--2-------0h2h0-----0-----|--0--------0-----------------|
--0----3---------3--2-----|-----2--------3--2h3h2h0--3--|
--------------------------|-----------------------------|
--------------------------|-----------------------------|


                                                      
--------------------------|--------------------------|
--------3--3--------3-----|--------------------3--3--|
--------2-----2--------2--|--2-------0h2h0-----0-----|
--2-----0--------0--------|--0----3---------3--2-----|
-----3--------------------|--------------------------|
--------------------------|--------------------------|


                                                         
-----------------------------|--------------------------|
--------3--------------------|--------3--3--------3-----|
--0--------0-----------------|--------2-----2--------2--|
-----2--------3--2h3h2h0--3--|--2-----0--------0--------|
-----------------------------|-----3--------------------|
-----------------------------|--------------------------|


                                                         
--------------------------|-----------------------------|
--------------------3--3--|--------3--------------------|
--2-------0h2h0-----0-----|--0--------0-----------------|
--0----3---------3--2-----|-----2--------3--2h3h2h0--3--|
--------------------------|-----------------------------|
--------------------------|-----------------------------|


                                                      
--------------------------|--------------------------|
--------3--3--------3-----|--------------------3--3--|
--------2-----2--------2--|--2-------0h2h0-----0-----|
--2-----0--------0--------|--0----3---------3--2-----|
-----3--------------------|--------------------------|
--------------------------|--------------------------|


                                                         
-----------------------------|--------------------------|
--------3--------------------|--------3--3--------3-----|
--0--------0-----------------|--------2-----2--------2--|
-----2--------3--2h3h2h0--3--|--2-----0--------0--------|
-----------------------------|-----3--------------------|
-----------------------------|--------------------------|


                                                           
|---------------------------|-----------------------------|
|---------------------3--3--|--------3--------------------|
|*--2-------0h2h0-----0-----|--0--------0-----------------|
|*--0----3---------3--2-----|-----2--------3--2h3h2h0--3--|
|---------------------------|-----------------------------|
|---------------------------|-----------------------------|


                                                        
---------------------------||--------------------------|
--------3--3--------3------||--------------------3--3--|
--------2-----2--------2--*||--2-------0h2h0-----0-----|
--2-----0--------0--------*||--0----3---------3--2-----|
-----3---------------------||--------------------------|
---------------------------||--------------------------|


                                                         
-----------------------------|--------------------------|
--------3--------------------|--------3--3--------3-----|
--0--------0-----------------|--------2-----2--------2--|
-----2--------3--2h3h2h0--3--|--2-----0--------0--------|
-----------------------------|-----3--------------------|
-----------------------------|--------------------------|


                                                         
--------------------------|-----------------------------|
--------------------3--3--|--------3--------------------|
--2-------0h2h0-----0-----|--0--------0-----------------|
--0----3---------3--2-----|-----2--------3--2h3h2h0--3--|
--------------------------|-----------------------------|
--------------------------|-----------------------------|


                                                      
--------------------------|--------------------------|
--------3--3--------3-----|--------------------3--3--|
--------2-----2--------2--|--2-------0h2h0-----0-----|
--2-----0--------0--------|--0----3---------3--2-----|
-----3--------------------|--------------------------|
--------------------------|--------------------------|


                                                         
-----------------------------|--------------------------|
--------3--------------------|--------3--3--------3-----|
--0--------0-----------------|--------2-----2--------2--|
-----2--------3--2h3h2h0--3--|--2-----0--------0--------|
-----------------------------|-----3--------------------|
-----------------------------|--------------------------|


                                                         
--------------------------|-----------------------------|
--------------------3--3--|--------3--------------------|
--2-------0h2h0-----0-----|--0--------0-----------------|
--0----3---------3--2-----|-----2--------3--2h3h2h0--3--|
--------------------------|-----------------------------|
--------------------------|-----------------------------|


                                                          
--------------------------||-----------------------------|
--------3--3--------3-----||------10--------10--------8--|
--------2-----2--------2--||*---------7---------7--------|
--2-----0--------0--------||*--0---------0---------0-----|
-----3--------------------||-----------------------------|
--------------------------||-----------------------------|


                                                      4x                    
--------------------------|---------------------------||--0----------------|
--------8--------6--------|--6--------5--------5------||--3----------------|
--5--------5--------3-----|-----3--------2--------2--*||--2----------------|
-----0--------0--------0--|--------0--------0--------*||--0----------------|
--------------------------|---------------------------||-------------------|
--------------------------|---------------------------||-------------------|


                                                         
--------------------------|-----------------------------|
--------------------3--3--|--------3--------------------|
--2-------0h2h0-----0-----|--0--------0-----------------|
--0----3---------3--2-----|-----2--------3--2h3h2h0--3--|
--------------------------|-----------------------------|
--------------------------|-----------------------------|


                                                      
--------------------------|--------------------------|
--------3--3--------3-----|--------------------3--3--|
--------2-----2--------2--|--2-------0h2h0-----0-----|
--2-----0--------0--------|--0----3---------3--2-----|
-----3--------------------|--------------------------|
--------------------------|--------------------------|


                                                         
-----------------------------|--------------------------|
--------3--------------------|--------3--3--------3-----|
--0--------0-----------------|--------2-----2--------2--|
-----2--------3--2h3h2h0--3--|--2-----0--------0--------|
-----------------------------|-----3--------------------|
-----------------------------|--------------------------|


                                                         
--------------------------|-----------------------------|
--------------------3--3--|--------3--------------------|
--2-------0h2h0-----0-----|--0--------0-----------------|
--0----3---------3--2-----|-----2--------3--2h3h2h0--3--|
--------------------------|-----------------------------|
--------------------------|-----------------------------|


                                                      
--------------------------|--------------------------|
--------3--3--------3-----|--------------------3--3--|
--------2-----2--------2--|--2-------0h2h0-----0-----|
--2-----0--------0--------|--0----3---------3--2-----|
-----3--------------------|--------------------------|
--------------------------|--------------------------|


                                                         
-----------------------------|--------------------------|
--------3--------------------|--------3--3--------3-----|
--0--------0-----------------|--------2-----2--------2--|
-----2--------3--2h3h2h0--3--|--2-----0--------0--------|
-----------------------------|-----3--------------------|
-----------------------------|--------------------------|


                                                         
--------------------------|-----------------------------|
--------------------3--3--|--------3--------------------|
--2-------0h2h0-----0-----|--0--------0-----------------|
--0----3---------3--2-----|-----2--------3--2h3h2h0--3--|
--------------------------|-----------------------------|
--------------------------|-----------------------------|


                                                      
--------------------------|--------------------------|
--------3--3--------3-----|--------------------3--3--|
--------2-----2--------2--|--2-------0h2h0-----0-----|
--2-----0--------0--------|--0----3---------3--2-----|
-----3--------------------|--------------------------|
--------------------------|--------------------------|


                                                         
-----------------------------|--------------------------|
--------3--------------------|--------3--3--------3-----|
--0--------0-----------------|--------2-----2--------2--|
-----2--------3--2h3h2h0--3--|--2-----0--------0--------|
-----------------------------|-----3--------------------|
-----------------------------|--------------------------|


                                                         
--------------------------|-----------------------------|
--------------------3--3--|--------3--------------------|
--2-------0h2h0-----0-----|--0--------0-----------------|
--0----3---------3--2-----|-----2--------3--2h3h2h0--3--|
--------------------------|-----------------------------|
--------------------------|-----------------------------|


                                                      
--------------------------|--------------------------|
--------3--3--------3-----|--------------------3--3--|
--------2-----2--------2--|--2-------0h2h0-----0-----|
--2-----0--------0--------|--0----3---------3--2-----|
-----3--------------------|--------------------------|
--------------------------|--------------------------|


                                                         
-----------------------------|--------------------------|
--------3--------------------|--------3--3--------3-----|
--0--------0-----------------|--------2-----2--------2--|
-----2--------3--2h3h2h0--3--|--2-----0--------0--------|
-----------------------------|-----3--------------------|
-----------------------------|--------------------------|


                                                          
|-----------------------------|--------------------------|
|------10--------10--------8--|--------8--------6--------|
|*---------7---------7--------|--5--------5--------3-----|
|*--0---------0---------0-----|-----0--------0--------0--|
|-----------------------------|--------------------------|
|-----------------------------|--------------------------|


                           3x                              
---------------------------||-----------------------------|
--6--------5--------5------||------10--------10--------8--|
-----3--------2--------2--*||*---------7---------7--------|
--------0--------0--------*||*--0---------0---------0-----|
---------------------------||-----------------------------|
---------------------------||-----------------------------|


                                                      
--------------------------|--------------------------|
--------8--------6--------|--6--------5--------5-----|
--5--------5--------3-----|-----3--------2--------2--|
-----0--------0--------0--|--------0--------0--------|
--------------------------|--------------------------|
--------------------------|--------------------------|


                          2x                             
--------------------------||----------------------------|
--0h-3----3-----1-----1---||-----10--------10--------8--|
--0h-2----2-----0-----0--*||---------7---------7--------|
--0h-0----0--------------*||--0---------0---------0-----|
-------------3-----3------||----------------------------|
--------------------------||----------------------------|


                                                                                
--------------------------|--------------------------|-------------------------|
--------8--------6--------|--6--------5--------5-----|--0h-3----3-----1-----1--|
--5--------5--------3-----|-----3--------2--------2--|--0h-2----2-----0-----0--|
-----0--------0--------0--|--------0--------0--------|--0h-0----0--------------|
--------------------------|--------------------------|-------------3-----3-----|
--------------------------|--------------------------|-------------------------|


                                                                             
--0----------------|------------------|------------------|------------------|
--3----------------|------------------|------------------|------------------|
--2----------------|------------------|------------------|------------------|
--0----------------|------------------|------------------|------------------|
-------------------|------------------|------------------|------------------|
-------------------|------------------|------------------|------------------|


                                                                            
------------------|------------------|------------------|------------------|
------------------|------------------|------------------|------------------|
------------------|------------------|------------------|------------------|
------------------|------------------|------------------|------------------|
------------------|------------------|------------------|------------------|
------------------|------------------|------------------|------------------|


                                                                            
------------------|------------------|------------------|------------------|
------------------|------------------|------------------|------------------|
------------------|------------------|------------------|------------------|
------------------|------------------|------------------|------------------|
------------------|------------------|------------------|------------------|
------------------|------------------|------------------|------------------|


                                                            
------------------|------------------|---------------------|
------------------|------------------|----------3--3--3----|
------------------|------------------|----------2--2--2----|
------------------|------------------|----------0--0--0----|
------------------|------------------|---------------------|
------------------|------------------|---------------------|


                                                   
----------------------|---------------------------|
--3--------3----3--3--|--3-3--3--3--3---3----1----|
--2--------2----2--2--|--2-2--2--2--2---2----2----|
--0--------0----0--0--|--0-0--0--0--0---0----0----|
----------------------|----------------------3----|
----------------------|---------------------------|


                                                         
---------------------------------|----------------------|
----1----1--1--1-1--1--1--1---1--|----------------------|
----2----2--2--2-2--2--2--2---2--|--3--------3----3--3--|
----0----0--0--0-0--0--0--0---0--|--3--------3----3--3--|
----3----3--3--3-3--3--3--3---3--|--1--------1----1--1--|
---------------------------------|----------------------|


                                                              
---------------------------|---------------------------------|
---------------------------|---------------------------------|
--3-3--3--3--3---3----2----|----2----2--2--2-2--2--2--2---2--|
--3-3--3--3--3---3----2----|----2----2--2--2-2--2--2--2---2--|
--1-1--1--1--1---1----0----|----0----0--0--0-0--0--0--0---0--|
---------------------------|---------------------------------|


                                                                               
-------------------------|------------------------|------|------|------|------|
--0h-3----3-----1-----1--|--3--3--3--3--3--3------|------|------|------|------|
--0h-2----2-----0-----0--|--2--2--2--2--2--2------|------|------|------|------|
--0h-0----0--------------|--0--0--0--0--0--0------|------|------|------|------|
-------------3-----3-----|------------------------|------|------|------|------|
-------------------------|------------------------|------|------|------|------|
            
Submit corrections


        My Kantele lessons Hard to play? Try these video lessons and learn fast My Kantele lessons
        
↑ Back to top | Tablatures and chords for acoustic guitar and electric guitar, ukulele, drums are parodies/interpretations of the original songs. You may use it for private study, scholarship, research or language learning purposes only