» » »

Amorphis - Day Of Your Beliefs Tabs

Artists:  A B C D E F G H I J K L M N O P Q R S T U V W X Y Z # 

Day Of Your Beliefs Tabs

(ver. 1) Click to play this song!
Amorphis
 Rating:
4/5 (4 votes)

 Day Of Your Beliefs lessons Tabs too difficult? Try these video lessons and learn fast
 
                h-hammer on
p-pull off
/-slide






|----------------------------------------------------------------------------------|
|-6h8----6h8p6--------------------------------6h8-8-6------------------------------|
|--------------7---------------------------------------7----------7----------------|
|-------------------5h7h8-------5h7p5/3--5----------------5h7h8------5h7p5-------5-|
|-----------------------------------------------------------------------------8----|
|----------------------------------------------------------------------------------|


THE BEGINNIG OF THE SONG WHEN HE ONLY PLAYS PARTS OF THE REAL INTRO.





|----------------------------------------------------------------------------------|
|---6h8-8-6------------------------------------------------------------------------|
|------------7---5-5h7-5------------------7----------------------------------------|
|--------------------------8-7-5---5-7-8-----5h7p5-------5-------------------------|
|-----------------------------------------------------8----------------------------|
|----------------------------------------------------------------------------------|



REPEAT THIS RIFF





|-----------10---------------------------------------------------------------------|
|--8-10-11--------8h10p8--------8--------------------------------------------------|
|---------------------------10-----------------------------------------------------|
|----------------------------------------------------------------------------------|
|----------------------------------------------------------------------------------|
|----------------------------------------------------------------------------------|

THE ENDING OF THE INTRO WHEN THE SONG GETS VERY THIN



  


|---13h15-15--13-------------------------------------------------------------------|
|-----------------15---13--13h15-13-------------------------15---------------------|
|------------------------------------15-14-12--12-14-15-12-----12-12h13p12----12-14|
|--------------------------------------------------------------------------15------|
|----------------------------------------------------------------------------------|
|----------------------------------------------------------------------------------|



|---13h15-15--13-------------------------------------------------------------------|
|-----------------15---13--13h15-13-------------------------15---------------------|
|------------------------------------15-14-12--12-14-15-12-----12-12h13p12----12---|
|--------------------------------------------------------------------------15------|
|----------------------------------------------------------------------------------|
|----------------------------------------------------------------------------------|

THE SLOW PART OF THE SONG IS HERE AT THE BOTTOM
|-----------------------------------------|
|--6h8-8-6--------------------------------|
|----------7-----------7------------------|
|--------------5--7--8-----5h7p5/3-5------|
|-----------------------------------------|
|-----------------------------------------|


|---------------------------------13---15--|
|-6h8-8-6-------------13----13/15----------|
|----------7----10/12----12----------------|
|------------------------------------------|
|------------------------------------------|
|------------------------------------------|


|------------------------------------------|
|-6h8-8-6h8p6------------------------------|
|-------------7--------7-------------------|
|----------------5-7-8----5h7p5/3-5--------|
|------------------------------------------|
|------------------------------------------|



|------------------------------------------|
|-6h8-8-6----------------------------------|
|---------7---------7----------------------|
|-----------5--7--8---5h7p5/3-5------------|
|------------------------------------------|
|------------------------------------------|


|------------------------------------------|
|------------------------------------------|
|------------7-----------------------------|
|----5--7--8---5h7p5/3-5-------------------|
|------------------------------------------|
|------------------------------------------|


I'm sorry but i wont tab the power chords,but in case you're wondering they are G5, Bb5,F5,Eb5, D5,C5,Ab5-these are the ones he uses throughout the song you figure it out where they go....



AEEE "LUPUS"/ PRA TD MUNDO NO BRASIL Q CURTE AMORPHIS
 SADI
            
Submit corrections


        Day Of Your Beliefs lessons Hard to play? Try these video lessons and learn fast Day Of Your Beliefs lessons
        
↑ Back to top | Tablatures and chords for acoustic guitar and electric guitar, ukulele, drums are parodies/interpretations of the original songs. You may use it for private study, scholarship, research or language learning purposes only