» » »

Amorphis - Cares Bass

Artists:  A B C D E F G H I J K L M N O P Q R S T U V W X Y Z # 

Cares Bass

(ver. 1) Click to play this song!
Amorphis
 Rating:
4/5 (4 votes)

 Cares  lessons Tabs too difficult? Try these video lessons and learn fast
 
                (1)
tune down

F|--------|--------|
C|--------|--------|
G|7-------|77m-----|
D|--------|--------|

F|-----------------|
C|-----------------|
G|-777--57-7-7-8757|
D|-----------------|

F|------------------|
C|------------------|
G|----8-5-7p5h7^----|
D|------------------|

F|---------|---------|---------|----------------|
C|---------|---------|---------|----------------|
G|-8-88-88-|-3-33-33-|-7-77-77-|1111111111111111|
D|---------|---------|---------|----------------|

F|------------------|
C|------------------|
G|---8m-------------|
D|-------------4----|

F|------------------|
C|------------------|
G|------------------|
D|---0m-------------|

F|------------------|
C|------------------|
G|------------------|
D|--4---0--3--4m----|

F|------------------|
C|------------------|
G|---7-----7---9h10-|
D|------7-----------|

F|------------------|------------------|------------------|
C|------------------|------------------|------------------|
G|---5-----5---3----|---2-----2---0----|------------------|
D|------5-----------|------2-----------|---0---3---4------|

F|------------------|------------------|------------------|------------------|
C|------------------|------------------|------------------|------------------|
G|---7----7-7-----3-|------------------|------------------|------------------|
D|------------------|--4-------4-4-----|--0--0-0----3-----|--4---------------|

F|------------------|------------------|------------------|------------------|
C|------------------|------------------|------------------|------------------|
G|---7----7-7-----3-|------------------|------------------|------------------|
D|------------------|--4-------4-4-----|--0--0-0----6--7--|--4---0--3--4m----|


F|--------------------------------------|
C|--------------------------------------|
G|--------------------------------------|
D|---0-0-0-0-0-0-0-0-0-0-0-0-0-0-0-00---|

F|------------------|------------------|------------------|------------------|-------
C|------------------|------------------|------------------|------------------|-------
G|---7----7-7---3---|------------------|------------------|------------------|-------
D|------------------|--4-------4-4-----|---0---3---6---6/8|---6---3---4---0--|---3--4
            
Submit corrections


        Cares  lessons Hard to play? Try these video lessons and learn fast Cares  lessons
        
↑ Back to top | Tablatures and chords for acoustic guitar and electric guitar, ukulele, drums are parodies/interpretations of the original songs. You may use it for private study, scholarship, research or language learning purposes only