» » »

Amorphis - Black Winter Day Tabs

Artists:  A B C D E F G H I J K L M N O P Q R S T U V W X Y Z # 

Black Winter Day Tabs

(ver. 3) Click to play this song!
Amorphis
 Rating:
4/5 (4 votes)

 Black Winter Day lessons Tabs too difficult? Try these video lessons and learn fast
 
                black winter day                                 

                                                                       martenson
rythim-guitar



                                                                               
C#||--------------|--------------|--------------|--------------|--------------|
G#||--------------|--------------|--------------|--------------|--------------|
E ||--------------|--------------|--------------|--------------|--------------|
B ||--------------|--------------|--------------|--------------|--------------|
F#||--------------|--------------|--------------|--------------|--------------|
C#||--------------|--------------|--------------|--------------|--------------|


                                                                          
--------------|-------------------|------------------||------------------|
--------------|-------------------|------------------||------------------|
--------------|-------------------|------------------||*-----------------|
--------------|--4----4--4--4--4--|--7----7--7--7----||*--9------9--9----|
--------------|--4----4--4--4--4--|--7----7--7--7----||---9------9--9----|
--------------|--2----2--2--2--2--|--5----5--5--5----||---7------7--7----|


                                                                      
----------------|-----------------|----------------|-----------------|
----------------|-----------------|----------------|-----------------|
----------------|-----------------|-----------7----|-----------------|
--5--------7----|--9------9--9----|--7--------7----|--9------9--9----|
--5--------7----|--9------9--9----|--7--------5----|--9------9--9----|
--3--------5----|--7------7--7----|--5-------------|--7------7--7----|


                                                                              
----------------|-------------------|-------------------||-------------------|
----------------|-------------------|-------------------||-------------------|
----------------|-------------------|------------------*||-------------------|
--5--------7----|--4----4--4--4--4--|--7----7--7--7----*||--4----4--4--4--4--|
--5--------7----|--4----4--4--4--4--|--7----7--7--7-----||--4----4--4--4--4--|
--3--------5----|--2----2--2--2--2--|--5----5--5--5-----||--2----2--2--2--2--|


                                                                     
------------------||----------------|---------------|---------------|
------------------||----------------|---------------|---------------|
------------------||*---------------|---------------|---------------|
--7----7--7--7----||*--2------------|--5------------|--2------------|
--7----7--7--7----||---2------------|--5------------|--2------------|
--5----5--5--5----||---0------------|--3------------|--0------------|


                                                                  
---------------|---------------|---------------|-----------------|
---------------|---------------|---------------|-----------------|
---------------|---------------|---------------|-----------------|
--7------------|--2------------|--5------------|--2----5----4----|
--5------------|--2------------|--5------------|--2----5----4----|
---------------|--0------------|--3------------|--0----3----2----|


                                                                           
----------------||-----------------|---------------||---------------------|
----------------||-----------------|---------------||---------------------|
--5------------*||------------7----|--5------------||*--------------------|
--5------------*||--2----4----7----|--5------------||*--9------9-9-9-9----|
--3-------------||--2----4----5----|--3------------||---9------9-9-9-9----|
----------------||--0----2---------|---------------||---7------7-7-7-7----|


                                                            
--------------------|--------------------|-----------------|
--------------------|--------------------|-----------------|
--------------------|--------------------|--9------9--9----|
--12------12--12----|--9------9-9-9-9----|--9------9--9----|
--12------12--12----|--9------9-9-9-9----|--7------7--7----|
--10------10--10----|--7------7-7-7-7----|-----------------|


                                                                             
--------------------|---------------|------------------|-------------------||
--------------------|---------------|------------------|-------------------||
--------------------|---------------|------------------|------------------*||
--9------9-9-9-9----|--9------------|--2--4----4--4----|--2--4----4--4----*||
--9------9-9-9-9----|--9------------|--2--4----4--4----|--2--4----4--4-----||
--7------7-7-7-7----|--7------------|--0--2----2--2----|--0--2----2--2-----||


                                                                                
------------------|------------------|--------------------|--------------------|
------------------|------------------|--------------------|--------------------|
------------------|------------------|--------------------|--------------------|
--2--4----4--4----|--2--4----4--4----|--9------9-9-9-9----|--12------12--12----|
--2--4----4--4----|--2--4----4--4----|--9------9-9-9-9----|--12------12--12----|
--0--2----2--2----|--0--2----2--2----|--7------7-7-7-7----|--10------10--10----|


                                                                            
--------------------|-----------------|--------------------|---------------|
--------------------|-----------------|--------------------|---------------|
--------------------|--9------9--9----|--------------------|---------------|
--9------9-9-9-9----|--9------9--9----|--9------9-9-9-9----|--9------------|
--9------9-9-9-9----|--7------7--7----|--9------9-9-9-9----|--9------------|
--7------7-7-7-7----|-----------------|--7------7-7-7-7----|--7------------|


                                                                              
-----------------|-----------------|--------------------|--------------------|
-----------------|-----------------|--------------------|--------------------|
-----------------|--2------2--2----|--------------------|--------------------|
--4------4--4----|--2------2--2----|--9------9-9-9-9----|--12------12--12----|
--4------4--4----|--0------0--0----|--9------9-9-9-9----|--12------12--12----|
--2------2--2----|-----------------|--7------7-7-7-7----|--10------10--10----|


                                                                            
--------------------|-----------------|--------------------|---------------|
--------------------|-----------------|--------------------|---------------|
--------------------|--9------9--9----|--------------------|---------------|
--9------9-9-9-9----|--9------9--9----|--9------9-9-9-9----|--9------------|
--9------9-9-9-9----|--7------7--7----|--9------9-9-9-9----|--9------------|
--7------7-7-7-7----|-----------------|--7------7-7-7-7----|--7------------|


                                                                         
-----------------|-----------------||------------------|----------------|
-----------------|-----------------||------------------|----------------|
-----------------|--2------2--2----||*-----------------|----------------|
--4------4--4----|--2------2--2----||*--9--------9--9--|--9----7--------|
--4------4--4----|--0------0--0----||---7--------7--7--|--7----5--------|
--2------2--2----|-----------------||---7--------7--7--|--7----5--------|


                                   3x                                    
-----------------|-----------------||-----------------|-----------------|
-----------------|-----------------||-----------------|-----------------|
-----------------|----------------*||-----------------|--7------7--7----|
--9--------9--9--|--9----7--------*||--9------9--9----|--7------7--7----|
--7--------7--7--|--7----7---------||--9------9--9----|--5------5--5----|
--7--------7--7--|--7----5---------||--7------7--7----|-----------------|


                                                                         
-----------------|------------------|-----------------|-----------------|
-----------------|------------------|-----------------|-----------------|
-----------------|--9--9----9----9--|-----------------|-----------------|
--9------9--9----|--9--9----9----9--|--9------9--9----|--9------9--9----|
--9------9--9----|--7--7----7----7--|--9------9--9----|--9------9--9----|
--7------7--7----|------------------|--7------7--7----|--7------7--7----|


                                                                        
-----------------|-----------------|-----------------|-----------------|
-----------------|-----------------|-----------------|-----------------|
-----------------|-----------------|-----------------|--7------7--7----|
--4------4--4----|--4------4--4----|--9------9--9----|--7------7--7----|
--4------4--4----|--4------4--4----|--9------9--9----|--5------5--5----|
--2------2--2----|--2------2--2----|--7------7--7----|-----------------|


                                                                         
-----------------|------------------|-----------------|-----------------|
-----------------|------------------|-----------------|-----------------|
-----------------|--9------9--9--9--|-----------------|-----------------|
--9------9--9----|--9------9--9--9--|--9------9--9----|--9------9--9----|
--9------9--9----|--7------7--7--7--|--9------9--9----|--9------9--9----|
--7------7--7----|------------------|--7------7--7----|--7------7--7----|


                                                                                
-----------------|-----------------||---------------------|--------------------|
-----------------|-----------------||---------------------|--------------------|
-----------------|-----------------||*--------------------|--------------------|
--4------4--4----|--4------4--4----||*--9------9-9-9-9----|--12------12--12----|
--4------4--4----|--4------4--4----||---9------9-9-9-9----|--12------12--12----|
--2------2--2----|--2------2--2----||---7------7-7-7-7----|--10------10--10----|


                                                                            
--------------------|-----------------|--------------------|---------------|
--------------------|-----------------|--------------------|---------------|
--------------------|--9------9--9----|--------------------|---------------|
--9------9-9-9-9----|--9------9--9----|--9------9-9-9-9----|--9------------|
--9------9-9-9-9----|--7------7--7----|--9------9-9-9-9----|--9------------|
--7------7-7-7-7----|-----------------|--7------7-7-7-7----|--7------------|


                                                                            
-----------------|------------------||------------------|------------------|
-----------------|------------------||------------------|------------------|
-----------------|-----------------*||*-----------------|------------------|
--4------4--4----|--7------7--7----*||*--4------4--4----|--7------7--7--7--|
--4------4--4----|--7------7--7-----||---4------4--4----|--7------7--7--7--|
--2------2--2----|--5------5--5-----||---2------2--2----|--5------5--5--5--|


                                                                        
|------------------|----------------|-----------------|----------------|
|------------------|----------------|-----------------|----------------|
|*-----------------|----------------|-----------------|-----------7----|
|*--9------9--9----|--5--------7----|--9------9--9----|--7--------7----|
|---9------9--9----|--5--------7----|--9------9--9----|--7--------5----|
|---7------7--7----|--3--------5----|--7------7--7----|--5-------------|


                                                                            
-----------------|----------------|-------------------|-------------------||
-----------------|----------------|-------------------|-------------------||
-----------------|----------------|-------------------|------------------*||
--9------9--9----|--5--------7----|--4----4--4--4--4--|--7----7--7--7----*||
--9------9--9----|--5--------7----|--4----4--4--4--4--|--7----7--7--7-----||
--7------7--7----|--3--------5----|--2----2--2--2--2--|--5----5--5--5-----||


                                                                         
-------------------|------------------||----------------|---------------|
-------------------|------------------||----------------|---------------|
-------------------|------------------||*---------------|---------------|
--4----4--4--4--4--|--7----7--7--7----||*--2------------|--5------------|
--4----4--4--4--4--|--7----7--7--7----||---2------------|--5------------|
--2----2--2--2--2--|--5----5--5--5----||---0------------|--3------------|


                                                                
---------------|---------------|---------------|---------------|
---------------|---------------|---------------|---------------|
---------------|---------------|---------------|---------------|
--2------------|--7------------|--2------------|--5------------|
--2------------|--5------------|--2------------|--5------------|
--0------------|---------------|--0------------|--3------------|


                                                                  
-----------------|---------------|---------------|---------------|
-----------------|---------------|---------------|---------------|
-----------------|--5------------|---------------|---------------|
--2----5----4----|--5------------|--2------------|--5------------|
--2----5----4----|--3------------|--2------------|--5------------|
--0----3----2----|---------------|--0------------|--3------------|


                                                                
---------------|---------------|---------------|---------------|
---------------|---------------|---------------|---------------|
---------------|---------------|---------------|---------------|
--2------------|--7------------|--2------------|--5------------|
--2------------|--5------------|--2------------|--5------------|
--0------------|---------------|--0------------|--3------------|


                                                                      
-----------------|----------------||-----------------|---------------|
-----------------|----------------||-----------------|---------------|
------------7----|--5------------*||------------7----|--5------------|
--2----4----7----|--5------------*||--2----4----7----|--5------------|
--2----4----5----|--3-------------||--2----4----5----|--3------------|
--0----2---------|----------------||--0----2---------|---------------|


                                                                 
---------------|----------------|---------------|--------------||
---------------|----------------|---------------|--------------||
---------------|----------------|---------------|--------------||
--9------------|--12------------|--2------------|--------------||
--9------------|--12------------|--2------------|--------------||
--7------------|--10------------|--0------------|--------------||
            
Submit corrections


        Black Winter Day lessons Hard to play? Try these video lessons and learn fast Black Winter Day lessons
        
↑ Back to top | Tablatures and chords for acoustic guitar and electric guitar, ukulele, drums are parodies/interpretations of the original songs. You may use it for private study, scholarship, research or language learning purposes only