» » »

American Hi-Fi - Vertigo Tabs

Artists:  A B C D E F G H I J K L M N O P Q R S T U V W X Y Z # 

Vertigo Tabs

(ver. 2) Click to play this song!
American Hi-Fi
 Rating:
4/5 (4 votes)

 Vertigo lessons Tabs too difficult? Try these video lessons and learn fast
 
                Intro
e------------------------------
B------------------------------
G-------------------------8--8-   x 1
D-8--8----1--1----6--6----8--8-
A-8--8----1--1----6--6----6--6-
D-8--8----1--1----6--6---------

Then...
e-------------------------
B-------------------------
G------------------------- x 1
D-8--8----1--1----6----1--
A-8--8----1--1----6----1--
D-8--8----1--1----6----1--

Verse: (I'll do everything...)
e------------------------------
B------------------------------
G-----------------3--3---------  x 1
D-5--5----1--1----3--3----3--3-
A-5--5----1--1----1--1----3--3-
D-5--5----1--1------------3--3-

e-----------------------------------
B-----------------------------------
G-----------------3--3--------------
D-5--5----1--1----3--3----3--3----1-
A-5--5----1--1----1--1----3--3----1-  let ring
D-5--5----1--1------------3--3----1-

Chorus: (Yeah you get me high...)
e------------------------------
B------------------------------
G-------------------------8--8-   x 3
D-8--8----1--1----6--6----8--8-
A-8--8----1--1----6--6----6--6-
D-8--8----1--1----6--6---------

Then...
e-------------------------
B-------------------------
G------------------------- x 1
D-8--8----1--1----6----1--
A-8--8----1--1----6----1--
D-8--8----1--1----6----1--

Other Bit
I'm not quite sure but it think it is the the same chords
as the verse but twice as fast with another high guitar
part. ie:
e---------------------------------
B---------------------------------
G-----------------3--3------------  x 3
D-5--5----1--1----3--3----3--3--3-
A-5--5----1--1----1--1----3--3--3-
D-5--5----1--1------------3--3--3-

e---------------------------
B---------------------------
G-----------------3--3----8-  x 3
D-5--5----1--1----3--3----8-
A-5--5----1--1----1--1----6-
D-5--5----1--1--------------

Then the chorus and your done!
I know it isn't perfect but it's basically all there.
            
Submit corrections


        Vertigo lessons Hard to play? Try these video lessons and learn fast Vertigo lessons
        
↑ Back to top | Tablatures and chords for acoustic guitar and electric guitar, ukulele, drums are parodies/interpretations of the original songs. You may use it for private study, scholarship, research or language learning purposes only