» » »

American Hi-Fi - Hi Fi Killer Tabs

Artists:  A B C D E F G H I J K L M N O P Q R S T U V W X Y Z # 

Hi Fi Killer Tabs

(ver. 2) Click to play this song!
American Hi-Fi
 Rating:
4/5 (4 votes)

 Hi Fi Killer lessons Tabs too difficult? Try these video lessons and learn fast
 
                
x - pick scr*pe
) - bend
() - release
/ - slide

  Verse
E|------------------------------------|
B|------------------------------------|
G|----------5-5-5-5-------------------|
D|----------5-5-5-5--5-5-5-5--2-2-2-2-|
A|-2-2-2-2--3-3-3-3--5-5-5-5--0-0-0-0-|
E|-0-0-0-0-----------3-3-3-3----------|

  Chorus
E|------------------------------||-------|
B|--------------------6-6-7-6---||-------|
G|-7--7/7--7--7/9--9--6-6-6-6-8-||-8--10-|
D|-x--x----x--x----x------------||-x--x--|
A|-3--3/5--5--5/7--7------------||-6--8--|
E|------------------------------||-------|

  Interlude                             
E|-0-0-0-0-----------3-3-3-3--3-3-3-3-|
B|-0-0-0-0-----------3-3-3-3--5-5-5-5-|
G|---------2)-(2)--0------------------|
D|------------------------------------|
A|------------------------------------|
E|------------------------------------|

 "but i'm not sure"
6th string: E|--16)-----16\-|

  Bridge
E|-----------------------------------------------|
B|-----------------------------------------------|
G|-----------------------------------------------|
D|-5-x-5-5-x-5-5-x-5-5---3-x-3-3-x-3-3-x-3-3-3---|
A|-5-x-5-5-x-5-5-x-5-5---3-x-3-3-x-3-3-x-3-3-3---|
E|-3-x-3-3-x-3-3-x-3-3-0-1-x-1-1-x-1-1-x-1-1-1-0-|


 next come around after 2nd Interlude
"you can hum along"
E|-12-12-12-12-----------------------------------------|
B|-12-12-12-12-----------------------------------------|
G|-------------14)-(14)-12-14)-(14)-12-14-12----12-14)-|
D|-------------------------------------------14--------|
A|-----------------------------------------------------|
E|-----------------------------------------------------|
            
Submit corrections


        Hi Fi Killer lessons Hard to play? Try these video lessons and learn fast Hi Fi Killer lessons
        
↑ Back to top | Tablatures and chords for acoustic guitar and electric guitar, ukulele, drums are parodies/interpretations of the original songs. You may use it for private study, scholarship, research or language learning purposes only