» » »

American Hi-Fi - Hell Yeah! Tabs

Artists:  A B C D E F G H I J K L M N O P Q R S T U V W X Y Z # 

Hell Yeah! Tabs

(ver. 1) Click to play this song!
American Hi-Fi
 Rating:
4/5 (4 votes)

 Hell Yeah! lessons Tabs too difficult? Try these video lessons and learn fast
 
                American Hi-Fi

another great yet simple song by american hi-fi... i have the guitar parts and the piano
part (arranged for guitar). you can play this song in standard tuning but i like to play
it in drop d. i will make another tab in standard tuning as well...

drop d (EBGDAD)

key:

 / = slide up
 \ = slide down
 ~ = let is ring
(5)= ghost note
 b = bend
 r = release bend
 x = left hand mute

----------------------------------------------------------------------------
Guitar 1

intro

E|---------------------|
B|---------------------|
G|---------------------|
D|---------------------|
A|---------------------| (x2)
D|--2--3----6--5----5--|

verse

E|----------------------------------------|
B|----------------------------------------|
G|----------------------------------------|
D|----------------------------------------|
A|----------------------------------------| (x4)
D|--2--3----6--5----5--2--3----6--5----5--|

chorus

E|------------------------------------------|
B|-----------------------------------5\3----|
G|--------------------7~-----------------5--|
D|--------5--5--(5)/9-------------5---------|
A|--3/5-7-------------------3/5-7-----------| (x2)
D|------------------------------------------|

E|------|
B|------|
G|--2~--|
D|------|
A|------| (x1)
D|------|

post-chorus

E|----------------|
B|----------------|
G|----------------|
D|----------------|
A|----------------| (x1)
D|--2--3----6--5--|

verse

E|----------------------------------------|
B|----------------------------------------|
G|----------------------------------------|
D|----------------------------------------|
A|----------------------------------------| (x4)
D|--2--3----6--5----5--2--3----6--5----5--|

chorus

E|------------------------------------------|
B|-----------------------------------5\3----|
G|--------------------7~-----------------5--|
D|--------5--5--(5)/9-------------5---------|
A|--3/5-7-------------------3/5-7-----------| (x2)
D|------------------------------------------|

E|------------------------------|
B|--3b(4)r-3b(4)r-3b(4)r-3b(4)--|
G|------------------------------|
D|------------------------------| 
A|--5b(6)r-5b(6)r-5b(6)r-5b(6)--| (x1)
D|------------------------------|
*you can use either bend... one's just an octave above the other

bridge

E|---------------------------|
B|--2-22-222-2---3-33-333-3--|
G|--2-22-222-2---3-33-333-3--|
D|--2-22-222-2---3-33-333-3--|
A|--0-00-000-0---1-11-111-1--| (x3)
D|---------------------------|

E|--8888-88888--8888-88888--|
B|--8888-88888--8888-88888--|
G|--5555-55555--5555-55555--|
D|--------------------------|
A|--------------------------| (x1)
D|--------------------------|

chorus

E|------------------------------------------|
B|-----------------------------------5\3----|
G|--------------------7~-----------------5--|
D|--------5--5--(5)/9-------------5---------|
A|--3/5-7-------------------3/5-7-----------| (x4)
D|------------------------------------------|

end on 

E|------|
B|------|
G|--2~--|
D|------|
A|------| (x1) 
D|------|
*let this one ring for a long time

----------------------------------------------------------------------------
Guitar 2

no intro

verse

E|---------------------------------------------------|
B|--8-xxxx--10-xxxx-10-xx--xx-13-xx--12-xxxx--12-xx--|
G|--9-xxxx--10-xxxx-10-xx--xx-13-xx--12-xxxx--12-xx--|
D|--9-xxxx--10-xxxx-10-xx--xx-13-xx--12-xxxx--12-xx--|
A|--7-xxxx---8-xxxx--8-xx--xx-11-xx--10-xxxx--10-xx--| (x4)
D|---------------------------------------------------|

chorus

E|--7-777--8-888888--12-121212--10-101010101010--|
B|--5-555--6-666666--10-101010---8--8-8-8-8-8-8--|
G|--4-444--5-555555---9--9-9-9---7--7-7-7-7-7-7--|
D|-----------------------------------------------|
A|-----------------------------------------------| (x4)
D|-----------------------------------------------|

verse

E|---------------------------------------------------|
B|--8-xxxx--10-xxxx-10-xx--xx-13-xx--12-xxxx--12-xx--|
G|--9-xxxx--10-xxxx-10-xx--xx-13-xx--12-xxxx--12-xx--|
D|--9-xxxx--10-xxxx-10-xx--xx-13-xx--12-xxxx--12-xx--|
A|--7-xxxx---8-xxxx--8-xx--xx-11-xx--10-xxxx--10-xx--| (x4)
D|---------------------------------------------------|

chorus

E|--7-777--8-888888--12-121212--10-101010101010--|
B|--5-555--6-666666--10-101010---8--8-8-8-8-8-8--|
G|--4-444--5-555555---9--9-9-9---7--7-7-7-7-7-7--|
D|-----------------------------------------------|
A|-----------------------------------------------| (x4)
D|-----------------------------------------------|

bridge

E|---------------------------|
B|--2-22-222-2---3-33-333-3--|
G|--2-22-222-2---3-33-333-3--|
D|--2-22-222-2---3-33-333-3--|
A|--0-00-000-0---1-11-111-1--| (x3)
D|---------------------------|

E|--8888-88888--8888-88888--|
B|--8888-88888--8888-88888--|
G|--5555-55555--5555-55555--|
D|--------------------------|
A|--------------------------| (x1)
D|--------------------------|

chorus

E|--7-777--8-888888--12-121212--10-101010101010--|
B|--5-555--6-666666--10-101010---8--8-8-8-8-8-8--|
G|--4-444--5-555555---9--9-9-9---7--7-7-7-7-7-7--|
D|-----------------------------------------------|
A|-----------------------------------------------| (x8)
D|-----------------------------------------------|

end on 

E|------|
B|------|
G|--2~--|
D|------|
A|------| (x1) 
D|------|
*let this one ring for a long time

----------------------------------------------------------------------------
Piano 

intro

E|---------------------------------------------------|
B|--8-8-8-10-10-10-10-10-10-13-13-12-12-12-12-12-12--|
G|--9-9-9-10-10-10-10-10-10-13-13-12-12-12-12-12-12--|
D|---------------------------------------------------| 
A|---------------------------------------------------| (x2)
D|---------------------------------------------------|

verse

E|---------------------------------------------------|
B|--8-8-8-10-10-10-10-10-10-13-13-12-12-12-12-12-12--|
G|--9-9-9-10-10-10-10-10-10-13-13-12-12-12-12-12-12--|
D|---------------------------------------------------| 
A|---------------------------------------------------| (x8)
D|---------------------------------------------------|

no chorus

verse

E|---------------------------------------------------|
B|--8-8-8-10-10-10-10-10-10-13-13-12-12-12-12-12-12--|
G|--9-9-9-10-10-10-10-10-10-13-13-12-12-12-12-12-12--|
D|---------------------------------------------------| 
A|---------------------------------------------------| (x8)
D|---------------------------------------------------|

no chorus

no bridge

no chorus

----------------------------------------------------------------------------


and that's it... all three parts to this song. enjoy! if you have any comments
            
Submit corrections


        Hell Yeah! lessons Hard to play? Try these video lessons and learn fast Hell Yeah! lessons
        
↑ Back to top | Tablatures and chords for acoustic guitar and electric guitar, ukulele, drums are parodies/interpretations of the original songs. You may use it for private study, scholarship, research or language learning purposes only