» » »

American Hi-Fi - Flavor Of The Week Tabs

Artists:  A B C D E F G H I J K L M N O P Q R S T U V W X Y Z # 

Flavor Of The Week Tabs

(ver. 1) Click to play this song!
American Hi-Fi
 Rating:
4/5 (4 votes)

 Flavor Of The Week lessons Tabs too difficult? Try these video lessons and learn fast
 
                
Alright I tabbed this song the other becuse I had nothing else better to do
and I searched for hours and I thought this was a really cool song and I couldn't 
find any lyrics or tabs for it. So I'm going to give you the tab and the lyrics. 
request on a song you want me to tab.


Intro/Verse (palm muted)
----------------------------------------- 
--5~~~~~---------------------------------
--3~~~~~5~~~~~7~~~~~3~~~~~---------------
--3~~~~~3~~~~~5~~~~~1~~~~~---------------
--------3~~~~~5~~~~~1~~~~~---------------

I'm not sure how exact the number of stroke is but you can tell if you listen to the song.
I'm not sure if this is right for the intro but you repeat it twice.


Refrain (part after the verse) I'm not to sure about this part.
--------------5~~~~~----------------------------------------------------------
--7~~~~~3~~~~~5~~~~~5~~~~~------3~~~~~7~~~~~----------------------------------
--7~~~~~3~~~~~3~~~~~5~~~~~------3~~~~~7~~~~~---------------------------------
--5~~~~~1~~~~~------3~~~~~------1~~~~~5~~~~~-------------------------------

The courus is just the verse with two stroke down on each one.


Riff after the courus
---------10-9-10----10-9-10-7----15-14-10-7-5--------------------------------------------------
-------------10------------10----------------------------------------------------------------

The italic part is only lpayed once then after that you play the intro.

Finger Picking part at the end (pretty close to the real thing)
-------1-----------------------3----------------------------------2-----------------------1-+
----0-----0---0------------------0---0------        2------------+---------------2-------------
------------2-------------0---------0----------        ---2----------+---------------------+----
--3---------------------------------------------------------------------------------3----------
-----------------------3----------------------1------------------------------------------------

just play C G A then F.


intro
verse #1
refrain
courus
riff
verse #2
refrain
courus
riff
solo (verse chords over)
chours-with finger picking
chours-without finger picking


verse 1 lyrics

She paints her nail and she don't know, he's got her bestfriend on the phone.
She'll wash her hair his dirty clothes, all he gives to her.

Refrain

And he's got posters on the wall, of all the girls he wish she were 
and he means everything to her.

Courus

Her boyfriend, he don't know, anything about her.
He's too stoned, Nintendo, I wish that I could make her see. She's just the flavor of the week.

Verse 2

It's Friday night and she's all alone, he's a million mile away.
She's dressed to kill the TV's on, she's coneected to the sound

Refrain 2

And he's got pictures on the wall of the girls he was he knew, 
and she know all his favorite song.

  That's it I hoped you like it, It's probably the only tab.
            
Submit corrections


        Flavor Of The Week lessons Hard to play? Try these video lessons and learn fast Flavor Of The Week lessons
        
↑ Back to top | Tablatures and chords for acoustic guitar and electric guitar, ukulele, drums are parodies/interpretations of the original songs. You may use it for private study, scholarship, research or language learning purposes only