» » »

American Hi-Fi - Flavor Of The Weak Bass

Artists:  A B C D E F G H I J K L M N O P Q R S T U V W X Y Z # 

Flavor Of The Weak Bass

(ver. 3) Click to play this song!
American Hi-Fi
 Rating:
4/5 (4 votes)

 Flavor Of The Weak lessons Tabs too difficult? Try these video lessons and learn fast
 
                i just saw the other tabs of this song all they wrong, this tab sounds really close to 
song. Enjoy it

here we go!!!

At 0:08

G------------------------------------------------------------------------------|
D------------------------------------------------------------------------------|
A------------------------------------------------------------------------------|
E-1-3-3--3-3--3-3--1-1-0-1-1-0-/-1-3-3--3-3--3-3--1-1-0-1-1-0------------------|

*No Bass During Verse.*-----------------------*

At 0:27 -------(And he's got posters on the wall...)

G------------------------------------------------------------------------------|
D------------------------------------------------------------------------------|
A--------1--1-1--------3-3-3-3-3-3-3-3-3-3-5-5-6-6-5-5-1(ring)-3(ring)---------|
E-3--3-3--------1--1-1---------------------------------------------------------|

At 0:38 *(two times)*-----(Her boyfriend, He don't know...)

G------------------------------------------------------------------------------|
D------------------------------------------------------------------------------|
A-1-1------3-3-3-3-3-3-3-3/6-6-6-6-6-6-6-6-------------------------------------|
E------1-1---------------------------------------------------------------------|

At 0:52 after chorus

G------------------------------------------------------------------------------|
D-----3-3-1-1-0-0-------------------5-5-3-3-5-5--------------------------------|
A-1-1---------------------------3-3-------------6-6-6-6-6-6-6-6----------------|
E-----------------1-1-1-1-1-1-1------------------------------------------------|

G------------------------------------------------------------------------------|
D-----3-3-1-1-0-0--------------------------------------------------------------|
A-1-1--------------------------------------------------------------------------|
E-----------------1-1-1-1-1-1-1---3-3--3-3--3-3--1-1-0-1-1-0-------------------|

At 1:04 *(two times)* ------(It's Friday night and she's all alone)

G------------------------------------------------------------------------------|
D------------------------------------------------------------------------------|
A-1-1-1-1-1-1-1-1---------------------------------6-6-6-6-6-6-6-6--------------|
E-----------------1-1-1-1-1-1-1-1-3-3-3-3-3-3-3-3------------------------------|

At 1:16 -------- (And he's got posters on the wall...)

G------------------------------------------------------------------------------|
D------------------------------------------------------------------------------|
A--------1--1-1--------3-3-3-3-3-3-3-3-3-3-5-5-6-6-5-5-1(ring)-3(ring)---------|
E-3--3-3--------1--1-1---------------------------------------------------------|

At 1:28 *(two times)*-----(Her boyfriend, He don't know...)

G------------------------------------------------------------------------------|
D------------------------------------------------------------------------------|
A-1-1------3-3-3-3-3-3-3-3/6-6-6-6-6-6-6-6-------------------------------------|
E------1-1---------------------------------------------------------------------|

At 1:40 after chorus

G------------------------------------------------------------------------------|
D-----3-3-1-1-0-0-------------------5-5-3-3-5-5--------------------------------|
A-1-1---------------------------3-3-------------6-6-6-6-6-6-6-6----------------|
E-----------------1-1-1-1-1-1-1------------------------------------------------|

G------------------------------------------------------------------------------|
D-----3-3-1-1-0-0--------------------------------------------------------------|
A-1-1--------------------------------------------------------------------------|
E-----------------1-1-1-1-1-1-1------------------------------------------------|

At 1:50 *(Two Times)* ------------- (Yeahhhh...)

G------------------------------------------------------------------------------|
D------------------------------------------------------------------------------|
A------------------------------------------------------------------------------|
E-1-3-3--3-3--3-3--1-1-0-1-1-0-/-1-3-3--3-3--3-3--1-1-0-1-1-0------------------|

At 2:02 Interlude

G------------------------------------------------------------------------------|
D------------------------------------------------------------------------------|
A-1-1--1-1--1-1-------------3-3--3-3--3-3-5/6-5/6-5/6-5------------------------|
E---------------1-1-0-1-1-0----------------------------------------------------|

G------------------------------------------------------------------------------|
D------------------------------------------------------------------------------|
A-1-1--1-1--1-1-------------3-3--3-3--3-3--5/6/5-1(Ring)-----------------------|
E---------------1-1-0-1-1-0----------------------------------------------------|

At 2:23

G------------------------------------------------------------------------------|
D------------------------------------------------------------------------------|
A-1-1------3-3-6-6--1-1-----3-3-6-6-6-6-6-6-6-6--------------------------------|
E------1-1--------------1-1----------------------------------------------------|

At 2:29 *(Two Times)* ------ (Her boyfriend, He don't know...)

G-------------------------------------------------------------------------------|
D-------------------------------------------------------------------------------|
A-1-1-1-1-1-1-1-1-----------------3-3-3-3-3-3-3-3-6-6-6-6-6/8/6/5---------------|
E-----------------1-1-1-1-1-1-1-1-----------------------------------------------|

At 2:42 *(Two Times)*------- (Yeah she's the flavor of the weak...)

G------------------------------------------------------------------------------|
D-----3-3-1-1-0-0-------------------5-5-3-3-5-5--------------------------------|
A-1-1---------------------------3-3-------------6-6-6-6-6-6-6-6----------------|
E-----------------1-1-1-1-1-1-1------------------------------------------------|

At 2:55 (She makes me weak....)

G------------------------------------------------------------------------------|
D-----3-3-1-1-0-0-------------------5-5-3-3-5-5--------------------------------|
A-1-1---------------------------3-3-------------6(Ring)------------------------|
E-----------------1-1-1-1-1-1-1------------------------------------------------|

please Rate it =)
            
Submit corrections


        Flavor Of The Weak lessons Hard to play? Try these video lessons and learn fast Flavor Of The Weak lessons
        
↑ Back to top | Tablatures and chords for acoustic guitar and electric guitar, ukulele, drums are parodies/interpretations of the original songs. You may use it for private study, scholarship, research or language learning purposes only