» » »

American Hi-Fi - Bigger Mood Tabs

Artists:  A B C D E F G H I J K L M N O P Q R S T U V W X Y Z # 

Bigger Mood Tabs

(ver. 1) Click to play this song!
American Hi-Fi
 Rating:
4/5 (4 votes)

 Bigger Mood lessons Tabs too difficult? Try these video lessons and learn fast
 
                

This is a great song, and here's how to play it!  It's in Dropped D tuning,
but here's most of the song, so it should get you off to a good start.

------------------------------------------------------------------------------|
------------------------------------------------------------------------------|
------------------------------------------------------------------------------|
-5--5--5-5-5--3--3--3-3-3--1--1--1-1-1-----0----------------------------------|
-5--5--5-5-5--3--3--3-3-3--1--1--1-1-1--x3-0----------------------------------|
-5--5--5-5-5--3--3--3-3-3--1--1--1-1-1-----0----------------------------------|
        Intro

------------------------------------------------------------------------------|
------------------------------------------------------------------------------|
-------------------------3-3-3-3-3--------------------------------------------|
---5-5-5-5-5--1-1-1-1-1--3-3-3-3-3--3-3-3-3-3---------------------------------|
---5-5-5-5-5--1-1-1-1-1--1-1-1-1-1--3-3-3-3-3---------------------------------|
---5-5-5-5-5--1-1-1-1-1-------------3-3-3-3-3---------------------------------|
       Chorus

-----------------|-----------------------------|------------------------------|
--x-x-9--9-------|-----------------------------|------------------------------|
--x-x-10-10--x5--|-----------------------------|------------------------------|
-----------------|-2-x-x-2-2-x-x-x-x-2-5-------|------------------------------|
-----------------|-2-x-x-2-2-x-x-x-x-2-5-------|------------------------------|
-----------------|-2-x-x-2-2-x-x-x-x-2-5-------|------------------------------|
  Verse 2          Interlude-Repeat a few times
            
Submit corrections


        Bigger Mood lessons Hard to play? Try these video lessons and learn fast Bigger Mood lessons
        
↑ Back to top | Tablatures and chords for acoustic guitar and electric guitar, ukulele, drums are parodies/interpretations of the original songs. You may use it for private study, scholarship, research or language learning purposes only