» » »

American Head Charge - Loyalty Bass

Artists:  A B C D E F G H I J K L M N O P Q R S T U V W X Y Z # 

Loyalty Bass

(ver. 2) Click to play this song!
American Head Charge
 Rating:
4/5 (4 votes)
                
LOYALTY (Bassline)
As recorded by American Head Charge
(From the 2005 Album THE FEEDING)

	

Words by Cameron Heacock Music by Bryan Ottoson, Justin Fowler, Cameron Heacock

Gtr I (Bb Eb Ab Db) - 'Chad'

   Intro
    Q.=120
   6/8
    Gtr I
    E E E  E E  E   E E E  E E  E   E E E  E E  E   E E E  Q.     4x
||--0-0-0-12-0-13-|-0-0-0-10-0-11-|-0-0-0-12-0-13-|-0-0-0-10------||
||o---------------|---------------|---------------|--------------o||
||o---------------|---------------|---------------|--------------o||
||----------------|---------------|---------------|---------------||


   Verse
    E E E E E E   E E E E E E   E E E E E E   E E E E E E  3x
||--------------|-------------|-------------|--------------||
||o-5-5-5-5-5-5-|-5-5-5-5-5-5-|-5-5-5-5-5-5-|-5-5-5-5-5-5-o||
||o-------------|-------------|-------------|-------------o||
||--------------|-------------|-------------|--------------||


    E E E E E E   E E E E E E   E E E E E E   E E E E E E

||--------------|-------------|-------------|-3-3-3-3-3-3-|
||o-5-5-5-5-5-5-|-5-5-5-5-5-5-|-5-5-5-5-5-5-|-------------|
||o-------------|-------------|-------------|-------------|
||--------------|-------------|-------------|-------------|


  E E E E E E   E E E E E E   E E E E E E   E E E E E E
|-------------|-------------|-------------|-------------|
|-5-5-5-5-5-5-|-5-5-5-5-5-5-|-5-5-5-5-5-5-|-5-5-5-5-5-5-|
|-------------|-------------|-------------|-------------|
|-------------|-------------|-------------|-------------|


  E E E E E E   E E E E E E   E E E E E E   E E E E E E
|-------------|-------------|-------------|-------------|
|-5-5-5-5-5-5-|-5-5-5-5-5-5-|-------------|-------------|
|-------------|-------------|-3-3-3-3-3-3-|-4-4-4-4-4-4-|
|-------------|-------------|-------------|-------------|


  1.
  E E E E E E   E E E E E E   E E E E E E   E E E E E E
|-------------|-------------|-------------|--------------||
|-5-5-5-5-5-5-|-5-5-5-5-5-5-|-5-5-5-5-5-5-|-5-5-5-5-5-5-o||
|-------------|-------------|-------------|-------------o||
|-------------|-------------|-------------|--------------||


   Chorus
    2.
    E E E  E E  E   E E E  E E  E   E E E  E E  E   E E E  Q.    4x
||--0-0-0-12-0-13-|-0-0-0-10-0-11-|-0-0-0-12-0-13-|-0-0-0-10-----||
||o---------------|---------------|---------------|-------------o||
||o---------------|---------------|---------------|-------------o||
||----------------|---------------|---------------|--------------||


 Verse
  Wx16
|---------|
|---------|
|---------|
|---------|


    E E E E E E   E E E E E E   E E E E E E   E E E E E E  3x
||--------------|-------------|-------------|--------------||
||o-5-5-5-5-5-5-|-5-5-5-5-5-5-|-5-5-5-5-5-5-|-5-5-5-5-5-5-o||
||o-------------|-------------|-------------|-------------o||
||--------------|-------------|-------------|--------------||


  E E E E E E   E E E E E E   E E E E E E   E E E E E E
|-------------|-------------|-------------|-------------|
|-5-5-5-5-5-5-|-5-5-5-5-5-5-|-------------|-------------|
|-------------|-------------|-3-3-3-3-3-3-|-4-4-4-4-4-4-|
|-------------|-------------|-------------|-------------|


   Chorus
    E E E  E E  E   E E E  E E  E   E E E  E E  E   E E E  Q.    4x
||--0-0-0-12-0-13-|-0-0-0-10-0-11-|-0-0-0-12-0-13-|-0-0-0-10-----||
||o---------------|---------------|---------------|-------------o||
||o---------------|---------------|---------------|-------------o||
||----------------|---------------|---------------|--------------||


 Bridge
  Wx8
|--------|
|--------|
|--------|
|--------|


     E  E E Q  E    E  E E Q  E    E  E E Q  E    E E  E  E  E  E  4x
||--12-10-0----0-|-12-10-0----0-|-12-10-0----0-|-10-9-10-13-12-10--||
||o--------------|--------------|--------------|------------------o||
||o--------------|--------------|--------------|------------------o||
||---------------|--------------|--------------|-------------------||


     E  E  E  E  E  E   E E E E E E   E E E E E E   E E E E E E  3x
||--------------------|-------------|-------------|--------------||
||o-------------------|-------------|-3-3-3-3-3-3-|-------------o||
||o-10-10-10-10-10-10-|-3-3-3-4-4-4-|-------------|-2-2-2-------o||
||--------------------|-------------|-------------|-------4-4-4--||


  E E E E E E   E E E  E  E  E    E  E  E  E  E  E    E E  E  E  E  E
|-------------|----------------|-------------------|-10-9-10-13-12-10-|
|-5-5-5-5-5-5-|-8-8-8-10-10-10-|-11-11-11-11-11-11-|------------------|
|-------------|----------------|-------------------|------------------|
|-------------|----------------|-------------------|------------------|


     E  E E Q  E    E  E E Q  E    E  E E Q  E    E E  E  E  E  E  4x
||--12-10-0----0-|-12-10-0----0-|-12-10-0----0-|-10-9-10-13-12-10--||
||o--------------|--------------|--------------|------------------o||
||o--------------|--------------|--------------|------------------o||
||---------------|--------------|--------------|-------------------||


  E H    E   Wx3        E H    E   Wx3
|----------|----------|----------|--------|
|----------|----------|----------|--------|
|----------|----------|----------|--------|
|-3--------|----------|-3--------|--------|


   Out Chorus
    E E E  E E  E   E E E  E E  E   E E E  E E  E   E E E  Q.    4x Q  H

||--0-0-0-12-0-13-|-0-0-0-10-0-11-|-0-0-0-12-0-13-|-0-0-0-10-----||---------*|
||o---------------|---------------|---------------|-------------o||---------*|
||o---------------|---------------|---------------|-------------o||---------*|
||----------------|---------------|---------------|--------------||-3-------*|



Duration Legend
---------------
W - whole; H - half; Q - quarter; E - 8th; S - 16th; T - 32nd; X - 64th; a - acciaccatura
+ - note tied to previous; . - note dotted; .. - note double dotted
Uncapitalized letters represent notes that are staccato (1/2 duration)
Irregular groupings are notated above the duration line
Duration letters will always appear directly above the note/fret number it represents the
duration for.  Duration letters with no fret number below them represent rests.  Multi-
bar rests are notated in the form Wxn, where n is the number of bars to rest for.  Low
melody durations appear below the staff

Tablature Legend
----------------
 h   - hammer-on
 p   - pull-off
 b   - bend
 pb  - pre-bend
 r   - bend release (if no number after the r, then release immediately)
 /\  - slide into or out of (from/to "nowhere")
 s   - legato slide
 S   - shift slide
 - natural harmonic
[n]  - artificial harmonic
n(n) - tapped harmonic
 ~   - vibrato
 tr  - trill
 T   - tap
 TP  - trem. picking
 PM  - palm muting
\n/  - tremolo bar dip; n = amount to dip
 \n  - tremolo bar down
 n/  - tremolo bar up
/n\  - tremolo bar inverted dip
 =   - hold bend; also acts as connecting device for hammers/pulls
 <> - volume swell (louder/softer)
 x   - on rhythm slash represents muted slash
 o   - on rhythm slash represents single note slash

Misc Legend
-----------
 |  - bar
||  - double bar
||o - repeat start
o|| - repeat end
*|  - double bar (ending)
 :  - bar (freetime)
 $  - Segno
 &  - Coda
Tempo markers -  = BPM(8/16=s8/s16), where s8 = swing 8ths, s16 = swing 16ths
            
Submit corrections

↑ Back to top | Tablatures and chords for acoustic guitar and electric guitar, ukulele, drums are parodies/interpretations of the original songs. You may use it for private study, scholarship, research or language learning purposes only