» » »

America - Tin Man Bass

Artists:  A B C D E F G H I J K L M N O P Q R S T U V W X Y Z # 

Tin Man Bass

(ver. 2) Click to play this song!
America
 Rating:
4.3/5 (18 votes)

 Tin Man lessons Tabs too difficult? Try these video lessons and learn fast
 
                [Intro(beginning riff)]
G|-------------7---5h7-5h7---------------------------------------------------|
D|---------7-----------------------------------------------------------------|
A|-----5---------------------------------------------------------------------|
E|---------------------------------------------------------------------------|


[Rest of intro/Verse]
G|---------------------------|-----------------------------------------------|
D|--5--5------5------5--4----|-----------------------------------------------|   x6
A|---------5-------5------5--|--3--3----3---3----3-4-5-----------------------|
E|---------------------------|--------3--------3-----------------------------|

The 6th time you play the verse transition the 3-4-5 at the end to the chorus

[Chorus]
G|---------------4--2--------------------------------------------------------|
D|-------5-5h7--------5--4---2-----------------------------------------------|   x4
A|----7-------------------------0--------------------------------------------|
E|-5------------------------------5------------------------------------------|

[Bridge]
G|-------------7-7-7----5h7--5h7---------------------------------------------|
D|----------7----------------------------------------------------------------|
A|--5-5-5--------------------------------------------------------------------|
E|---------------------------------------------------------------------------|

[Verse]
G|---------------------------|-----------------------------------------------|
D|--5--5------5------5--4----|-----------------------------------------------|   x4
A|---------5-------5------5--|--3--3----3---3----3-4-5-----------------------|
E|---------------------------|--------3--------3-----------------------------|

[Chorus]
G|---------------4--2--------------------------------------------------------|
D|-------5-5h7--------5--4---2-----------------------------------------------|   x4
A|----7-------------------------0--------------------------------------------|
E|-5------------------------------5------------------------------------------|

[Bridge]
G|-------------7-7-7----5h7--5h7---------------------------------------------|
D|----------7----------------------------------------------------------------|
A|--5-5-5--------------------------------------------------------------------|
E|---------------------------------------------------------------------------|

[Verse]
G|---------------------------|-----------------------------------------------|
D|--5--5------5------5--4----|-----------------------------------------------|   x4
A|---------5-------5------5--|--3--3----3---3----3-4-5-----------------------|
E|---------------------------|--------3--------3-----------------------------|

[Chorus]
G|---------------4--2--------------------------------------------------------|
D|-------5-5h7--------5--4---2-----------------------------------------------|   x4
A|----7-------------------------0--------------------------------------------|
E|-5------------------------------5------------------------------------------|

[Bridge]
G|-------------7-7-7----5h7--5h7---------------------------------------------|
D|----------7----------------------------------------------------------------|
A|--5-5-5--------------------------------------------------------------------|
E|---------------------------------------------------------------------------|

[Verse]
G|---------------------------|-----------------------------------------------|
D|--5--5------5------5--4----|-----------------------------------------------|   x6
A|---------5-------5------5--|--3--3----3---3----3-4-5-----------------------|
E|---------------------------|--------3--------3-----------------------------|
 On the 6th time hold the last 5 until the song fades            
Submit corrections


        Tin Man lessons Hard to play? Try these video lessons and learn fast Tin Man lessons
        
↑ Back to top | Tablatures and chords for acoustic guitar and electric guitar, ukulele, drums are parodies/interpretations of the original songs. You may use it for private study, scholarship, research or language learning purposes only