» » »

America - Tin Man Bass

Artists:  A B C D E F G H I J K L M N O P Q R S T U V W X Y Z # 

Tin Man Bass

(ver. 1) Click to play this song!
America
 Rating:
4/5 (4 votes)

 Tin Man lessons Tabs too difficult? Try these video lessons and learn fast
 
                INTRO:
    D11
G|---------------7---5h7-5h7-------|
D|--------7------------------------|
A|--5------------------------------|
E|---------------------------------|
  Gmaj7                              Cmaj7
G|----------------------------------------------------------------------|
D|-5----5----5------5------5-4------------------------------------------|
A|---------5-------------5-----5------3------3----3-----3--------3-4-5--| 2x
E|----------------------------------------------3--------------3--------|


VERSE:

 Gmaj7                              Cmaj7
G|----------------------------------------------------------------------|
D|-5----5----5------5------5-4------------------------------------------|
A|---------5-------------5-----5------3------3----3-----3--------3-4-5--| 3x
E|----------------------------------------------3--------------3--------|
   Gmaj7                             Cmaj7
G|----------------------------------------------------------------------|
D|-5----5----5------5------5-4------------------------------------------|
A|---------5-------------5-----5------3------3----3/--------------------|
E|----------------------------------------------3-----------------------|


CHORUS:

    Cmaj7/A             Gmaj7
G|------------------------------------------------------------|
D|--77777---------7/9----9---7---5---4-4----------------------| 4x
A|---------7777------------5-------------7--5-----------------|
E|------------------------------------------------------------|

    D11
G|---------------7-7-7----5h7-5h7-------|
D|----------7---------------------------|
A|--5-5-5-------------------------------|
E|--------------------------------------|

Another option for the chorus:

   Cmaj7/A                   Gmaj7
G|-------------------------------------------------------------|
D|--77777---------5h7--5h7----9--7----5----4-----5-4-----------|4x
A|---------7777---------------------5----------5-----5---------|
E|-------------------------------------------------------------|

   D11
G|---------------7-7-7----5h7-5h7-------|
D|----------7---------------------------|
A|--5-5-5-------------------------------|
E|--------------------------------------|
            
Submit corrections


        Tin Man lessons Hard to play? Try these video lessons and learn fast Tin Man lessons
        
↑ Back to top | Tablatures and chords for acoustic guitar and electric guitar, ukulele, drums are parodies/interpretations of the original songs. You may use it for private study, scholarship, research or language learning purposes only