Home » A » Amen »

Amen - Tv Womb Tabs

Artists:  A B C D E F G H I J K L M N O P Q R S T U V W X Y Z # 

Tv Womb Tabs

(ver. 1) Click to play this song!
Amen
 Rating:
4/5 (4 votes)
                TV Womb by Amen

if you put this tab any where please leave it as it is
and give me credit and the band as they wrote it in the first

Tuning: Drop D [D,A,D,G,b,e]
Intro:
e|----------||-----------------|
b|----------||o---------------o|
G|----------||-----------------|
D|-0-----0--||--0----1--1--1---|
A|-0-----0--||o-0----1--1--1--o|
D|-0-----0--||--0----1--1--1---|   

Verse:
e|------------------------------|
b|-----------------------------o|
G|------------------------------|
D|-0--x-x-x-x-1--x-x-1--x-x-1---|
A|-0--x-x-x-x-1--x-x-1--x-x-1--o|
D|-0--x-x-x-x-1--x-x-1--x-x-1---|

Bridge:			   
e|-------------------------------------------------------------|
b|-------------------------------------------------------------|
G|-6-6-6-------------------------7-7-7-------------------------|
D|-6-6-6-4--4-4-4-4-4-4-4-4-4-4--7-7-7-5--5-5-5-5-5-5-5-5-5-5--|
A|-4-4-4-4--4-4-4-4-4-4-4-4-4-4--5-5-5-5--5-5-5-5-5-5-5-5-5-5--|
D|-------4--4-4-4-4-4-4-4-4-4-4--------5--5-5-5-5-5-5-5-5-5-5--|

Chorus:
e|------------------------------------------------------------------|
b|------------------------------------------------------------------|
G|------------------------------------------------------------------|
D|-8-8-8-8-8-8-8-8-8-8-8-8-8-8-8-8-3-3-3--5--5-5-5-5-5-5-5-5-5-5-5--|
A|-8-8-8-8-8-8-8-8-8-8-8-8-8-8-8-8-3-3-3--5--5-5-5-5-5-5-5-5-5-5-5--|
D|-8-8-8-8-8-8-8-8-8-8-8-8-8-8-8-8-3-3-3--5--5-5-5-5-5-5-5-5-5-5-5--|

all corrections will be gladly accepted and if you need anymore AMEN tabs
mail me as i know almost all their songs inc slave and their b-sides
 + some disorderly conduct
            
Submit corrections

↑ Back to top | Tablatures and chords for acoustic guitar and electric guitar, ukulele, drums are parodies/interpretations of the original songs. You may use it for private study, scholarship, research or language learning purposes only