» » »

Amen - Too Hard To Be Free Tabs

Artists:  A B C D E F G H I J K L M N O P Q R S T U V W X Y Z # 

Too Hard To Be Free Tabs

(ver. 1) Click to play this song!
Amen
 Rating:
4/5 (4 votes)

 Too Hard To Be Free lessons Tabs too difficult? Try these video lessons and learn fast
 
                Track Number: 8

Intro
-------------------------------------------------------
-------------------------------------------------------
-------------------------------------------------------
-------------------------------------------------------
-------------------------------------------------------
--0-0-0-0--11-0-8-0-12---------------------------------


Verse
-----------------------------------------------------------
-----------------------------------------------------------
-----------------------------------------------------------
12--12--12---10-10-10--13-13-13--12-12-12--10-10-10-12-----
12--12--12---10-10-10--13-13-13--12-12-12--10-10-10-12-----
12--12--12---10-10-10--13-13-13--12-12-12--10-10-10-12-----


Chorus
0--0--0--0--1-1-1-1--3-3-3-3---0-0-0-0--1-1-1-1--2-2-2-2----------------
0--0--0--0--1-1-1-1--3-3-3-3---0-0-0-0--1-1-1-1--2-2-2-2----------------
0--0--0--0--1-1-1-1--3-3-3-3---0-0-0-0--1-1-1-1--2-2-2-2----------------


"Don't want to be the only boy" part:
---0--0--0--0--0--0--0--0--0--0----1-1-1-1-1--3-3-3-3--5-5-5-5----------
---0--0--0--0--0--0--0--0--0--0----1-1-1-1-1--3-3-3-3--5-5-5-5----------
---0--0--0--0--0--0--0--0--0--0----1-1-1-1-1--3-3-3-3--5-5-5-5----------
            
Submit corrections


        Too Hard To Be Free lessons Hard to play? Try these video lessons and learn fast Too Hard To Be Free lessons
        
↑ Back to top | Tablatures and chords for acoustic guitar and electric guitar, ukulele, drums are parodies/interpretations of the original songs. You may use it for private study, scholarship, research or language learning purposes only