Home » A » Amen »

Amen - The Last Time Tabs

Artists:  A B C D E F G H I J K L M N O P Q R S T U V W X Y Z # 

The Last Time Tabs

(ver. 1) Click to play this song!
Amen
 Rating:
4/5 (4 votes)
                The Last Time by Amen

if you put this tab any where please leave it as it is
and give me credit and the band as they wrote it in the first
  
Tuning: Drop D [D,A,D,G,b,e]                                  
                                                              the bends are
Intro/1st Verse:                                              pretty random      1st      2nd
e|-------------|---------|-------------|--------|------------|-------------------|--------|-----|
b|o-----------o|---------|o-----------o|--------|o----------o|o------------------|-------o|-----|
G|-------------|---------|-------------|--------|------------|-7b-8b-7b-8b-7b-8b-|-10b-9b-|-10b-|
D|--0-0-3-3-6--|-///13b--|--0-0-3-3-6--|///13b--|--0-0-33/6--|-------------------|--------|-----|
A|o-0-0-3-3-6-o|---------|o-0-0-3-3-6-o|///13b--|o-0-0-33/6-o|o------------------|-------o|-----|
D|--0-0-3-3-6--|---------|--0-0-3-3-6--|///13b--|--0-0-33/6--|-------------------|--------|-----|


Chorus:			   
e|------------------------------------------|
b|------------------------------------------|
G|------------------------------------------|
D|-0-0-0-6-0-5-0-3-0-2--0-0-0-6-0-5-0-3-0-8-|
A|-0-0-0-6-0-5-0-3-0-2--0-0-0-6-0-5-0-3-0-8-|
D|-0-0-0-6-0-5-0-3-0-2--0-0-0-6-0-5-0-3-0-8-|

2nd Verse:                                                
e|-------------|---------|------------|--------------------------|
b|o-----------o|---------|o----------o|--------------------------|
G|-------------|---------|------------|-7b-8b-7b-8b--10b-11b-12b-|
D|--0-0-3-3-6--|-///13b--|--0-0-33/6--|--------------------------|
A|o-0-0-3-3-6-o|---------|o-0-0-33/6-o|--------------------------|
D|--0-0-3-3-6--|---------|--0-0-33/6--|--------------------------|


Outro:
e|------------|-----------|-----------------|
b|-----------o|o---------o|-----------------|
G|------------|--7-6-7-6--|-----------------|
D|-0-0-3-3-6--|--7-6-7-6--|-0-0-3-3-6--0-0--|
A|-0-0-3-3-6-o|o-7-6-7-6-o|-0-0-3-3-6--0-0--|
D|-0-0-3-3-6--|-----------|-0-0-3-3-6--0-0--|

all corrections will be gladly accepted and if you need anymore AMEN tabs
mail me as i know almost all their songs inc slave and their b-sides
 + some disorderly conduct
            
Submit corrections

↑ Back to top | Tablatures and chords for acoustic guitar and electric guitar, ukulele, drums are parodies/interpretations of the original songs. You may use it for private study, scholarship, research or language learning purposes only