» » »

Amen - Te Quiero Tabs

Artists:  A B C D E F G H I J K L M N O P Q R S T U V W X Y Z # 

Te Quiero Tabs

(ver. 1) Click to play this song!
Amen
 Rating:
4.3/5 (24 votes)

 Te Quiero lessons Tabs too difficult? Try these video lessons and learn fast
 
                [Intro]

e|-------------------------------------------------------------------5------------------|
B|------------------------------------------------------8-7-6--4-5-8---7-5---------8----|
G|-------5--7^---7^---7H5----7^--7H5--4-4/1--1/4--4--5---------------------7-5-7^----7--|
D|--4/6--------------------6------------------------------------------------------------|
A|--------------------------------------------------------------------------------------|
E|--------------------------------------------------------------------------------------|

e|--------10^--10H9----------12-----12---12--140^14^---------------|
B|-8/10-------------10^-9--------13~----13--------------------14^--|
G|-7/9------------------------------------------------12/13---13^--|
D|-----------------------------------------------------------------|
A|-----------------------------------------------------------------|
E|-----------------------------------------------------------------|


e|-----------------------------------------13----------13----13---------13--13--|
B|-15--15----15--15----13--13---13--13-------13------13--13----13-----13----13--|
G|-15^-------15^-------13^------13^------------14--14------14----14-13------13--|
D|-----------------------------------------------15-----------------------------|
A|------------------------------------------------------------------------------|
E|------------------------------------------------------------------------------|

e|----------------12---11---10---8/1--|
B|----------------12---11---10---8/1--|
G|------------------------------------|
D|-12H14H14H14------------------------|
A|------------------------------------|
E|------------------------------------|            
Submit corrections


        Te Quiero lessons Hard to play? Try these video lessons and learn fast Te Quiero lessons
        
↑ Back to top | Tablatures and chords for acoustic guitar and electric guitar, ukulele, drums are parodies/interpretations of the original songs. You may use it for private study, scholarship, research or language learning purposes only