» » »

Amen - Private Tabs

Artists:  A B C D E F G H I J K L M N O P Q R S T U V W X Y Z # 

Private Tabs

(ver. 1) Click to play this song!
Amen
 Rating:
4/5 (4 votes)

 Private lessons Tabs too difficult? Try these video lessons and learn fast
 
                Private by Amen

if you put this tab any where please leave it as it is
and give me credit and the band as they wrote it in the first

Tuning: Drop D [D,A,D,G,b,e]
Intro:                                    x4 then
e|------------------------------------------|--------------------|
b|-----------------------------------------o|--------------------|
G|-12-12---12-12---12-12---12-12---12---12--|-12---12---12---12--|
D|------------------------------------------|--------------------|
A|-----------------------------------------o|--------------------|
D|------------------------------------------|--------------------|
     
e|-------------------------|
b|-------------------------|
G|-10-10-10-10-10-10-10----|
D|-10-10-10-10-10-10-10----|
A|--8--8--8--0--8--8--8-0--|
D|--------------8--8--8-0--|

Verse:
e|-------------------------------------------------------------------|
b|-------------------------------------------------------------------|
G|-------------------------------------------10-10-10-10-10-10-10----|
D|-x-x-x-x-x-x-xxx-x-x-x-x-x-xxx-x-x-x-x-x-x-10-10-10-10-10-10-10----|
A|-x-x-x-x-x-x-xxx-x-x-x-x-x-xxx-x-x-x-x-x-x--8--8--8--0--8--8--8-0--|
D|-x-x-x-x-x-x-xxx-x-x-x-x-x-xxx-x-x-x-x-x-x--------------8--8--8-0--|

Bridge:			      1st                            
e|--------------------------|------------------------------|
b|--------------------------|-----------------------------o|
G|--------------------------|------------------------------|
D|-6--6--6--6-8--8-8--8-8-8-|-3--3--3--3-5--5-5--5-5--3--5-|
A|-6--6--6--6-8--8-8--8-8-8-|-3--3--3--3-5--5-5--5-5--3--5o|
D|-6--6--6--6-8--8-8--8-8-8-|-3--3--3--3-5--5-5--5-5--3--5-|

cont.. 2nd
-----------------------------------|
-----------------------------------|
-12-12--12-12--12-12--12-12--12--12|
-10-10--10-10--10-10--10-10--10--10|
-10-10--10-10--10-10--10-10--10--10|
-10-10--10-10--10-10--10-10--10--10|

Chorus:
e|--------------------------------------------------------------------|
b|--------------------------------------------------------------------|
G|------------------------------------8-8-8---------------------------|
D|-10-10-10-5--5-5-5-5-5-5-5-5-5-5-5--8-8-8-8--8-8-8-8-8-8-8-8-7-8-9--|
A|-10-10-10-5--5-5-5-5-5-5-5-5-5-5-5--6-6-6-8--8-8-8-8-8-8-8-8-7-8-9--|
D|-10-10-10-5--5-5-5-5-5-5-5-5-5-5-5--------8--8-8-8-8-8-8-8-8-7-8-9--|

after chorus:              x3
e|---------------------------|------------------------------|
b|--------------------------o|------------------------------|
G|---------------------------|------------------------------|
D|-6-6--6-6--6-6--6-6-6/8-8--|-6-6--6-6-5-6-8--8-8-8-8-8-8--|
A|-6-6--6-6--6-6--6-6-6/8-8-o|-6-6--6-6-5-6-8--8-8-8-8-8-8--|
D|-6-6--6-6--6-6--6-6-6/8-8--|-6-6--6-6-5-6-8--8-8-8-8-8-8--|


all corrections will be gladly accepted and if you need anymore AMEN tabs
mail me as i know almost all their songs inc slave and their b-sides
 + some disorderly conduct
            
Submit corrections


        Private lessons Hard to play? Try these video lessons and learn fast Private lessons
        
↑ Back to top | Tablatures and chords for acoustic guitar and electric guitar, ukulele, drums are parodies/interpretations of the original songs. You may use it for private study, scholarship, research or language learning purposes only