» » »

Amen - Piss Virus Tabs

Artists:  A B C D E F G H I J K L M N O P Q R S T U V W X Y Z # 

Piss Virus Tabs

(ver. 1) Click to play this song!
Amen
 Rating:
4/5 (4 votes)

 Piss Virus lessons Tabs too difficult? Try these video lessons and learn fast
 
                iss Virus by Amen

if you put this tab any where please leave it as it is
and give me credit and the band as they wrote it in the first

Tuning: Drop D [D,A,D,G,b,e]
Intro:
e|-------------------------|--------------------|
b|-------------------------|--------------------|
G|-------------------------|--------Grab Random-|
D|-------------------------|--------Strings And-|
A|-------------------------|--------Hit Them----|
D|-00----------00----------|-3-0----------------|
     This Virus  p**s Virus

Verse:
e|---------------------------------------------------|
b|---------------------------------------------------|
G|------777777------777777------77777777888810101010-|
D|-3-0--777777-3-0--777777-3-0--77777777888810101010-|
A|-3-0--555555-3-0--555555-3-0--555555556666-8-8-8-8-|
D|-3-0---------3-0---------3-0-----------------------|

Bridge:			   
e|----------------------|--------------------|
b|-7----8----5----9-----|--------------------|
G|-7----8----5----9-----|--------------------|
D|-7----8----5----9-----|--5----6----8----10-|
A|-5----6----3----7-----|--5----6----8----10-|
D|----------------------|--5----6----8----10-|

Chorus:
e|----------------------------------------------------------------------------------------------|
b|----------------------------------------------------------------------------------------------|
G|----------------------------------------------------------------------------------------------|
D|-3-000-10101010-9999-8888-3-000-10101010-9999-8888-3-000-10101010-9999-8888-3333333-5555-6666-|
A|-3-000-10101010-9999-8888-3-000-10101010-9999-8888-3-000-10101010-9999-8888-3333333-5555-6666-|
D|-3-000-10101010-9999-8888-3-000-10101010-9999-8888-3-000-10101010-9999-8888-3333333-5555-6666-|

all corrections will be gladly accepted and if you need anymore AMEN tabs
mail me as i know almost all their songs inc slave and their b-sides
 + some disorderly conduct
            
Submit corrections


        Piss Virus lessons Hard to play? Try these video lessons and learn fast Piss Virus lessons
        
↑ Back to top | Tablatures and chords for acoustic guitar and electric guitar, ukulele, drums are parodies/interpretations of the original songs. You may use it for private study, scholarship, research or language learning purposes only