» » »

Amen - Heres The Poision Tabs

Artists:  A B C D E F G H I J K L M N O P Q R S T U V W X Y Z # 

Heres The Poision Tabs

(ver. 1) Click to play this song!
Amen
 Rating:
4/5 (4 votes)

 Heres The Poision lessons Tabs too difficult? Try these video lessons and learn fast
 
                Here's the Poison

all / s are slides, up or down

for all riff 2 variations one guitar plays the chords and another plays the 'leads'

Into Riff

E----------------------------------
B----------------------------------
G----------------------------------
D--3--8--1p0-----------------------
A--3--8--1p0-----------------------
D--3--8--1p0-----------------------

Riff 1

E----------------------------------
B----------------------------------
G----------------------------------
D----------------------------------
A----------------------------------
D--0-3-0-0-1-0-0-0--0-1-0-3-0-1-0-- the 5th time the second phrase ( 0-1-3-0-1-0- ) is left out

Lead

E----------------------------------
B----------------------------------
G--2-2-2-2-2-2-2-2-3-3-3-3-4-5-----
D----------------------------------
A----------------------------------
D----------------------------------

Fill 

E----------------------------------
B----------------------------------
G----------------------------------
D-0-3-0-1-0---0-13-0-1-0----------- not perfect but sounds ok
A-0-3-0-1-0---0-13-0-1-0----------- has so much distortion it doesnt really matter what you play
D-0-3-0-1-0---0-13-0-1-0-----------

Fill note just before riff 2

E-----
B-----
G--7--
D-----
A-----
D-----

Riff 2 (and did you know....) 40 seconds
                      only one guitar plays this section, it doesnt matter which, the other plays the below part
E----------------------------------------------------333333333333333-1111-5555555555-3333- 
B-----------------------------------------------------------------------------------------
G-222222222222222-----101010101010101010101010101010--------------------------------------  <--- all tens
D-0000000000000003333-101010101010101010101010101010--------------------------------------
A-0000000000000003333-8-8-8-8-8-8-8-8-8-8-8-8-8-8-8---------------------------------------
D-0000000000000003333-8-8-8-8-8-8-8-8-8-8-8-8-8-8-8---------------------------------------

E-----------------------------------------------------------------------------
B-----------------------------------------------------------------------------
G-222222222222222----111111111111111------------------------------------------ <--- the 1's are all tens
D-000000000000000333311111111111111133333333333333333333333333333333333-12/0--
A-000000000000000333388888888888888833333333333333333333333333333333333-12/0--
D-000000000000000333388888888888888833333333333333333333333333333333333-12/0--


Lead 2

E-------------------------------------------------------------------
B------------------------------------2-2-2-2-2-2-2-2-3-3-3-3-4-5-6--
G--2-2-2-2-2-2-2-2-3-3-3-3-4-5--------------------------------------
D-------------------------------------------------------------------
A-------------------------------------------------------------------
D-------------------------------------------------------------------

Riff 2 second time (1.25)

E--------------------------------------------------3333333333555555553333-----
B--------------------------------------------------xxxxxxxxxxxxxxxxxxxxxx-----
G-2222222222222222----11111111111111---------------xxxxxxxxxxxxxxxxxxxxxx----- <--- 1's are tens
D-00000000000000003333111111111111113333333333333333333333333333333333333-----
A-00000000000000003333888888888888883333333333333333333333333333333333333-----
D-00000000000000003333888888888888883333333333333333333333333333333333333-----

E--------------------------------------------------33333333333333333-------------------------
B--------------------------------------------------xxxxxxxxxxxxxxxxx-------------------------
G-2222222222222222------10101010101010101010101010-xxxxxxxxxxxxxxxxx------------------------- <- 10 are tens
D-000000000000000033338-10101010101010101010101010-3333333333333333333333333333333333333-----
A-000000000000000033338-8-8-8-8-8-8-8-8-8-8-8-8-8--3333333333333333333333333333333333333-----
D-000000000000000033338-8-8-8-8-8-8-8-8-8-8-8-8-8--3333333333333333333333333333333333333-----


1.43

E---------------
B---------------
G---------------
D--2------------ let ring till feedback an octave up
A--------------
D--------------


Riff 3 (what's it to be civilised....) 1.52

played very aggressively

E--------------------------------------------------
B--------(--repeat only this section-----)---------
G-------------------------------------------------- there's a lead here that is impossible to hear, i'll have a go at it later
D---12/0--0-3-0-0-1-0-0-0---0-1-0-3-0-1-0---12b----
A---12/0--0-3-0-0-1-0-0-0---0-1-0-3-0-1-0---12b----
D---12/0--0-3-0-0-1-0-0-0---0-1-0-3-0-1-0---12b----


Riff 2 third time (2.10)

E------------------------------------------------------333333333333333-1111-555555555555-3333-----
B---------------------------10101010101010101010101010--------------------------------------------
G--22222222222222222222-----10101010101010101010101010--------------------------------------------
D--000000000000000000003333-10101010101010101010101010--------------------------------------------
A--000000000000000000003333-8-8-8-8-8-8-8-8-8-8-8-8-8---------------------------------------------
D--000000000000000000003333-8-8-8-8-8-8-8-8-8-8-8-8-8---------------------------------------------

E-------------------------------------------------------slowly bend this 11 up to 13--------------------
B-------------------------------------------------------11-11-11-11-11-11-11-11-11-11-11-11-11-11-11-11-
G--22222222222222222222-----10101010101010101010101010--------------------------------------------------
D--000000000000000000003333-10101010101010101010101010--------------------------------------------------
A--000000000000000000003333-8-8-8-8-8-8-8-8-8-8-8-8-8---------------------------------------------------
D--000000000000000000003333-8-8-8-8-8-8-8-8-8-8-8-8-8---------------------------------------------------


(2.28)

E------------------------------
B------------------------------
G------3-2-----3-2------3-2----
D--0-3-----0-3------0-3--------
A------------------------------
D------------------------------


Riff 4 (2.44)

E-----------------------------------------------------------------------------------------------------------------------------------
B-----------------------------------------------------------------------------------------------------------------------------------
G-----------------------------------------------------------------------------------------------------------------------------------
D--12/0--12/0--3-3-3-3-6-6-6-6--12/0-12/0--5-5-5-5-8-8-8-8-12/0-12/0--3-3-3-3-6-6-6-6-9-9-9-9-10-10-10-10-11-11-11-11-12-12-12-12---
A--12/0--12/0--3-3-3-3-6-6-6-6--12/0-12/0--5-5-5-5-8-8-8-8-12/0-12/0--3-3-3-3-6-6-6-6-9-9-9-9-10-10-10-10-11-11-11-11-12-12-12-12---
D--12/0--12/0--3-3-3-3-6-6-6-6--12/0-12/0--5-5-5-5-8-8-8-8-12/0-12/0--3-3-3-3-6-6-6-6-9-9-9-9-10-10-10-10-11-11-11-11-12-12-12-12---

the last time of riff 4 play this

E------------------------------------------------------------------------------------slowly slide up and tremolo pick--
B----------------------------------------------------------------------------------------------------------------------
G--------------------------------------------------------------------------------------12/19---------------------------
D--12/0--12/0--3-3-3-3-6-6-6-6--12/0-12/0--5-5-5-5-8-8-8-8-12/0-12/22-3-3-3-3-6-6-6-6--12/19---------------------------
A--12/0--12/0--3-3-3-3-6-6-6-6--12/0-12/0--5-5-5-5-8-8-8-8-12/0-12/22-3-3-3-3-6-6-6-6----------------------------------
D--12/0--12/0--3-3-3-3-6-6-6-6--12/0-12/0--5-5-5-5-8-8-8-8-12/0-12/22-3-3-3-3-6-6-6-6----------------------------------


Riff 2 4th time (3.03)

E------------------------------------------------------333333333333333-1111-555555555555-3333-----
B---------------------------10101010101010101010101010--------------------------------------------
G--22222222222222222222-----10101010101010101010101010--------------------------------------------
D--000000000000000000003333-10101010101010101010101010-33333333333333333333333333333333333333-----
A--000000000000000000003333-8-8-8-8-8-8-8-8-8-8-8-8-8--33333333333333333333333333333333333333-----
D--000000000000000000003333-8-8-8-8-8-8-8-8-8-8-8-8-8--33333333333333333333333333333333333333-----

E-----------------------------------3333333333311111133333333355555555--------
B-----------------------------------------------------------------------------
G-222222222222222----111111111111111------------------------------------------ <--- the 1's are all tens
D-000000000000000333311111111111111133333333333333333333333333333333333-------
A-000000000000000333388888888888888833333333333333333333333333333333333-------
D-000000000000000333388888888888888833333333333333333333333333333333333-------

Outro (3.21)

E---------------------------------------------------------------------------
B----------------------------11-10-------11-10------------------------------
G------3-2-------3-2----7-10--------7-10----------then loads of feedback----
D--0-3-------0-3----------------------------------and pick scratches--------
A--0------------------------------------------------------------------------
D--0--< let this ring all the way through-----------------------------------


And that's the left channel



Here's the Poison


Into Riff

E----------------------------------
B----------------------------------
G----------------------------------
D--3--8--1p0-----------------------
A--3--8--1p0-----------------------
D--3--8--1p0-----------------------

Riff 1

E----------------------------------
B----------------------------------
G----------------------------------
D----------------------------------
A----------------------------------
D--0-3-0-0-1-0-0-0--0-1-0-3-0-1-0--

Lead 2

E----------------------------------
B--2-2-2-2-2-2-2-2-3-3-3-3-4-5-6---
G----------------------------------
D----------------------------------
A----------------------------------
D----------------------------------

Fill 

E----------------------------------
B----------------------------------
G----------------------------------
D-0-3-0-1-0---0-13-0-0------------- not perfect but sounds ok
A-0-3-0-1-0---0-13-0-0------------- has so much distortion it doesnt really matter what you play
D-0-3-0-1-0---0-13-0-0-------------

Fill Chord just before riff 2

E-----
B-----
G--7--
D--6--
A--5--
D-----

Riff 2 (and did you know....) 40 seconds

E----------------------------------------------------333333333333333-1111-5555555555-3333-
B-----------------------------------------------------------------------------------------
G-222222222222222-----101010101010101010101010101010--------------------------------------  <--- all tens
D-0000000000000003333-101010101010101010101010101010--------------------------------------
A-0000000000000003333-8-8-8-8-8-8-8-8-8-8-8-8-8-8-8---------------------------------------
D-0000000000000003333-8-8-8-8-8-8-8-8-8-8-8-8-8-8-8---------------------------------------

E-----------------------------------------------------------------------------
B-----------------------------------------------------------------------------
G-222222222222222----111111111111111------------------------------------------ <--- the 1's are all tens
D-000000000000000333311111111111111133333333333333333333333333333333333-12/0--
A-000000000000000333388888888888888833333333333333333333333333333333333-12/0--
D-000000000000000333388888888888888833333333333333333333333333333333333-12/0--

Variation of fill (second time) 1.16

E-----------------------------------------
B-----------------------------------------
G------------13-13-13-13------------------
D--0-3-0-1-0-13-13-13-13-0-1-0---0--------
A--0-3-0-1-0-------------0-1-0------------
D--0-3-0-1-0-------------0-1-0-------x/--- (x is pick slide)


Riff 2 second time (1.25)

E--------------------------------------------------3333333333555555553333-----
B--------------------------------------------------xxxxxxxxxxxxxxxxxxxxxx-----
G-2222222222222222----11111111111111---------------xxxxxxxxxxxxxxxxxxxxxx----- <--- 1's are tens
D-00000000000000003333111111111111113333333333333333333333333333333333333-----
A-00000000000000003333888888888888883333333333333333333333333333333333333-----
D-00000000000000003333888888888888883333333333333333333333333333333333333-----

E--------------------------------------------------33333333333333333-------------------------
B--------------------------------------------------xxxxxxxxxxxxxxxxx-------------------------
G-2222222222222222------10101010101010101010101010-xxxxxxxxxxxxxxxxx------------------------- <- 10 are tens
D-000000000000000033338-10101010101010101010101010-3333333333333333333333333333333333333-----
A-000000000000000033338-8-8-8-8-8-8-8-8-8-8-8-8-8--3333333333333333333333333333333333333-----
D-000000000000000033338-8-8-8-8-8-8-8-8-8-8-8-8-8--3333333333333333333333333333333333333-----


1.43

E---------------
B---------------
G---------------
D--0------------ let ring with emphasis on top d and a
A--0------------
D--0------------


Riff 3 (what's it to be civilised....) 1.52

played very aggressively

E-----------------------------------------------
B--------(--repeat only this section-----)------
G-----------------------------------------------
D---12/0--0-3-0-0-1-0-0-0---0-1-0-3-0-1-0-------
A---12/0--0-3-0-0-1-0-0-0---0-1-0-3-0-1-0-------
D---12/0--0-3-0-0-1-0-0-0---0-1-0-3-0-1-0-------


Riff 2 third time (2.10)

E------------------------------------------------------333333333333333-1111-555555555555-3333-----
B---------------------------10101010101010101010101010--------------------------------------------
G--22222222222222222222-----10101010101010101010101010--------------------------------------------
D--000000000000000000003333-10101010101010101010101010--------------------------------------------
A--000000000000000000003333-8-8-8-8-8-8-8-8-8-8-8-8-8---------------------------------------------
D--000000000000000000003333-8-8-8-8-8-8-8-8-8-8-8-8-8---------------------------------------------

E-------------------------------------------------------slowly bend this 11 up to 13--------------------
B-------------------------------------------------------11-11-11-11-11-11-11-11-11-11-11-11-11-11-11-11-
G--22222222222222222222-----10101010101010101010101010--------------------------------------------------
D--000000000000000000003333-10101010101010101010101010--------------------------------------------------
A--000000000000000000003333-8-8-8-8-8-8-8-8-8-8-8-8-8---------------------------------------------------
D--000000000000000000003333-8-8-8-8-8-8-8-8-8-8-8-8-8---------------------------------------------------


(2.28)

E-------------
B-------------
G-------------
D--0---------- let this note ring to feedback, then at about 2.39 put flanger/phaser on
A-------------
D-------------


Riff 4 (2.44)

E-----------------------------------------------------------------------------------------------------------------------------------
B-----------------------------------------------------------------------------------------------------------------------------------
G-----------------------------------------------------------------------------------------------------------------------------------
D--12/0--12/0--3-3-3-3-6-6-6-6--12/0-12/0--5-5-5-5-8-8-8-8-12/0-12/0--3-3-3-3-6-6-6-6-9-9-9-9-10-10-10-10-11-11-11-11-12-12-12-12---
A--12/0--12/0--3-3-3-3-6-6-6-6--12/0-12/0--5-5-5-5-8-8-8-8-12/0-12/0--3-3-3-3-6-6-6-6-9-9-9-9-10-10-10-10-11-11-11-11-12-12-12-12---
D--12/0--12/0--3-3-3-3-6-6-6-6--12/0-12/0--5-5-5-5-8-8-8-8-12/0-12/0--3-3-3-3-6-6-6-6-9-9-9-9-10-10-10-10-11-11-11-11-12-12-12-12---


Riff 2 4th time (3.03)

E------------------------------------------------------333333333333333-1111-555555555555-3333-----
B---------------------------10101010101010101010101010--------------------------------------------
G--22222222222222222222-----10101010101010101010101010--------------------------------------------
D--000000000000000000003333-10101010101010101010101010-33333333333333333333333333333333333333-----
A--000000000000000000003333-8-8-8-8-8-8-8-8-8-8-8-8-8--33333333333333333333333333333333333333-----
D--000000000000000000003333-8-8-8-8-8-8-8-8-8-8-8-8-8--33333333333333333333333333333333333333-----

E-----------------------------------3333333333311111133333333355555555--------
B-----------------------------------------------------------------------------
G-222222222222222----111111111111111------------------------------------------ <--- the 1's are all tens
D-000000000000000333311111111111111133333333333333333333333333333333333-------
A-000000000000000333388888888888888833333333333333333333333333333333333-------
D-000000000000000333388888888888888833333333333333333333333333333333333-------

Outro (3.21)

E---------------------------------------------------------------------------
B----------------------------11-10-------11-10------------------------------
G------3-2-------3-2----7-10--------7-10----------then loads of feedback----
D--0-3-------0-3------------------------------------------------------------
A---------------------------------------------------------------------------
D---------------------------------------------------------------------------


And that's the right channel (i think its the right) done!!!!
            
Submit corrections


        Heres The Poision lessons Hard to play? Try these video lessons and learn fast Heres The Poision lessons
        
↑ Back to top | Tablatures and chords for acoustic guitar and electric guitar, ukulele, drums are parodies/interpretations of the original songs. You may use it for private study, scholarship, research or language learning purposes only