» » »

Amen - Fevered Tabs

Artists:  A B C D E F G H I J K L M N O P Q R S T U V W X Y Z # 

Fevered Tabs

(ver. 1) Click to play this song!
Amen
 Rating:
4/5 (4 votes)

 Fevered lessons Tabs too difficult? Try these video lessons and learn fast
 
                
Fevered by Amen (from the album 'Amen')

Standard tuning (EADGBe). 
I'm not handy holding, plenty here for you to figure it all out.
If you haven't got the ear go and buy a saxomophone.

Intro:

e ----------------------------------------------------------------|
B ----------------------------------------------------------------|
G ----------------------------------------------------------------|
D 2---2-----------2---2-----------2---2-----------2---2-----------|
A 2---2-----------2---2-----------2---2-----------2---2-----------|
E 0---0-----------0---0-----------0---0-----------0---0-----------|
                                                                  |
e ----------------------------------------------------------------|
B ----------------------------------------------------------------|
G --------9---9-----------9---9-----------9---9-----------9---9---|
D --------9---9-----------9---9-----------9---9-----------9---9---|
A --------7---7-----------7---7-----------7---7-----------7---7---|
E ----------------------------------------------------------------| x4


e ----------------------------------------------------------------|
B ----------------------------------------------------------------|
G ----------------------------------------------------------------|
D ----------------------------------------------------------------|
A ----------------------------------------------------------------|
E 13--12------0-------2-------3-------5-------7-------8-------10--|
                                                                  |
e ----------------------------------------------------------------|
B ----5-------5-------5-------5-------5-------5-------5-------5---|
G ----4-------4-------4-------4-------4-------4-------4-------4---|
D ----2-------2-------2-------2-------2-------2-------2-------2---|
A ----------------------------------------------------------------|
E ----------------------------------------------------------------| x4


Verse riff:

e ----------------------------------------------------------------|
B ----------------------------------------------------------------|
G ----------------------------------------------------------------|
D ----------------------------------------------------------------|
A ----------------------------------------------------------------|
E ----------------------------------------------------------------|
                                                                  |
e ----------------------------------------------------------------|
B 6---5-------5-------5-------5-------5-------5-------5-------5---|
G 5---4-------4-------4-------4-------4-------4-------4-------4---|
D 3---2-------2-------2-------2-------2-------2-------2-------2---|
A ----------------------------------------------------------------|
E ----------------------------------------------------------------|


e ----------------------------------------------------------------|
B --------------------------------5-5-5-5-6-6-6-6-7-7-7-7-8-8-----|
G --------------------------------4-4-4-4-5-5-5-5-6-6-6-6-7-7-----|
D --------------------------------2-2-2-2-3-3-3-3-4-4-4-4-5-5-x-x-|
A ------------------------------------------------------------x-x-|
E ------------------------------------------------------------x-x-|
                                                                  |
e ----------------------------------------------------------------|
B 6---5-------5-------5-------5-----------------------------------|
G 5---4-------4-------4-------4-----------------------------------|
D 3---2-------2-------2-------2-----------------------------------|
A ----------------------------------------------------------------|
E ----------------------------------------------------------------| x4


Chorus Riff:

(both guitars)
e ----------------------------------------------------------------|
B ----------------------------------------------------------------|
G ----------------------------------------------------------------|
D ----------------------------------------------------------------|
A 15--14------2-------4-------5-------7-------9-------10------12--|
E 13--12------0-------2-------3-------5-------7-------8-------10--| x4


Bridge:

e ----------------------------------------------------------------|
B ----------------------------------------------------------------|
G ----------------------------------------------------------------|
D 10--10--10--10--10--10--10--10--7---7---7---7---9---9---9---9---|
A 10--10--10--10--10--10--10--10--7---7---7---7---9---9---9---9---|
E 8---8---8---8---8---8---8---8---5---5---5---5---7---7---7---7---|
                                                                  |
e ----------------------------------------------------------------|
B ----------------------------------------------------------------|
G ----------------------------------------------------------------|
D ----------------------------------------------------------------|
A ----------------------------------------------------------------|
E ----------------------------------------------------------------|


e ----------------------------------------------------------------|
B ----------------------------------------------------------------|
G ----------------------------------------------------------------|
D ------O---S-----F----E---D---A---K-------S---R---T---H---N------|
A ----L---T-----O----F---E---B---C-----&-----C---A---C---I---G----|
E ----------------------------------------------------------------|
                                                                  |
e ----------------------------------------------------------------|
B ----5-------5-------5-------5-------5-------5-------5-------5---|
G ----4-------4-------4-------4-------4-------4-------4-------4---|
D ----2-------2-------2-------2-------2-------2-------2-------2---|
A ----------------------------------------------------------------|
E ----------------------------------------------------------------| x3


e ----------------------------------------------------------------|
B ----------------------------------------------------------------|
G ----------------------------------------------------------------|
D 10--10--10--10--10--10--10--10--7---7---7---7---9---9---9---9---|
A 10--10--10--10--10--10--10--10--7---7---7---7---9---9---9---9---|
E 8---8---8---8---8---8---8---8---5---5---5---5---7---7---7---7---|
                                                                  |
e ----------------------------------------------------------------|
B ----------------------------------------------------------------|
G ----------------------------------------------------------------|
D ----------------------------------------------------------------|
A ----------------------------------------------------------------|
E ----------------------------------------------------------------|


e ----------------------------------------------------------------|
B ----------------------------------------------------------------|
G ----------------------------------------------------------------|
D ----2-------2-------2-------2-------2-------2-------2-------2---|
A ----2-------2-------2-------2-------2-------2-------2-------2---|
E ----0-------0-------0-------0-------0-------0-------0-------0---|
                                                                  |
e ----------------------------------------------------------------|
B ----5-------5-------5-------5-------5-------5-------5-------5---|
G ----4-------4-------4-------4-------4-------4-------4-------4---|
D ----2-------2-------2-------2-------2-------2-------2-------2---|
A ----------------------------------------------------------------|
E ----------------------------------------------------------------| 
                                                                  

Lyrics:

A nation of fools a nation of lies
One thousand fools for one hundred lies
Believe nothing that I tell you
Believe nothing that I say 

Fever, got you Fevered 

Going down on everything I wanted
So I'm sucking off anything diseased
This that, this and that this and that
Bombing every fear I need 

Fever, got you Fevered 

Can't you feel the bombs around?
Coming home and falling on you
Get it? Get it? Get it? Get it? 
No Get you fevered


================================================================================
            
Submit corrections


        Fevered lessons Hard to play? Try these video lessons and learn fast Fevered lessons
        
↑ Back to top | Tablatures and chords for acoustic guitar and electric guitar, ukulele, drums are parodies/interpretations of the original songs. You may use it for private study, scholarship, research or language learning purposes only