Home » A » Amebix »

Amebix - Coming Home Tabs

Artists:  A B C D E F G H I J K L M N O P Q R S T U V W X Y Z # 

Coming Home Tabs

(ver. 1) Click to play this song!
Amebix
(Intro)
Amebix
Coming Home
Album : Monolith

Amebix are british crust punk legends who broke
for some time..so there's no point of putting their
link on this tab..you should check out this other site for more info
i'm to lazy to type up a bio.


all clean..
-------------3--------------3--------------3------|
-----------3------3-------3------3-------3------3-|
---0h2---2--------------2--------------0----------|
-------0-------0----0-3-------3----3-2-------2----|
--------------------------------------------------|
--------------------------------------------------|

--------------------------3---------------3------|
-----------3------------3------3--------3------3-|
---------0-----0------2---------------2----------|
---2---2-----2----2-0-------0-----0-3-------3----|
-----3-------------------------------------------|
-------------------------------------------------|

-----------3-----------------------------------3-|
---------3------3----------------------------3---|
-------0-----------------0-----0-----0h2---2-----|
---3-2-------2-----2---2-----0-----------0-------|
---------------------3-----2------3--------------|
-------------------------------------------------|

----------------3---------------3-----------------|
------3-------3------3--------2------3----------3-|
------------2---------------0-----------------0---|
---0----0-3-------3-----3-2-------2-----2---2-----|
------------------------------------------3-------|
--------------------------------------------------|


-----------------3--------------3--------------3--|
---------------3------3-------3------3-------3----|
-----0-0h2---2--------------2--------------0------|
---2-------0-------0----0-3-------3----3-2--------|
--------------------------------------------------|
--------------------------------------------------|


--------------------------------------3~~~~~----|
------3-------------------------------3~~~~~----|
------------------0--------0----------2~~~~~----|
---2-----2-----2--------0--------0----0~~~~~----|
------------3--------2--------3-----------------|
------------------------------------------------|

last will and testament tab comming soon
            
Submit corrections

↑ Back to top | Tablatures and chords for acoustic guitar and electric guitar, ukulele, drums are parodies/interpretations of the original songs. You may use it for private study, scholarship, research or language learning purposes only