Home » A » Amanda Palmer »

Amanda Palmer - Have To Drive Tabs

Artists:  A B C D E F G H I J K L M N O P Q R S T U V W X Y Z # 

Have To Drive Tabs

(ver. 1) Click to play this song!
Amanda Palmer
(Intro)
-------------------------------------------------------------------------------
                             HAVE TO DRIVE - Amanda Palmer
-------------------------------------------------------------------------------

This is my first tab.

This tab is not correct nor complete, just my interpretation of the song.

Tuning:Standard

Intro/Verse
e|---------------------------------------------------------------------------|
B|---------------------------------------------------------------------------|
G|---------------------------------------------------------------------------|
D|---2---2---2---2---2---2---2---2---2---2---2---2---2---2---2---2-----------|
A|-0---0---0---0-------------------------------------------------------------|
E|-----------------0---0---0---0---2---2---2---2---4---4---4---4-------------|

e|---------------------------------------------------------------------------|
B|---------------------------------------------------------------------------|
G|---------------------------------------------------------------------------|
D|---2---2---2---2---2---2---2---2---2---2---2---2---2---2---2---2-----------|
A|-0---0---0---0-------------------------------------------------------------|
E|-----------------0---0---0---0---2---2---2---2---4---4---4---4-------------|
         I have to drive...
e|---------------------------------------------------------------------------|
B|---------------------------------------------------------------------------|
G|---------------------------------------------------------------------------|
D|---2---2---2---2---2---2---2---2---2---2---2---2---2---2---2---2-----------|
A|-0---0---0---0-------------------------------------------------------------|
E|-----------------0---0---0---0---2---2---2---2---4---4---4---4-------------|
         I have my rea----sons... dear
e|---------------------------------------------------------------------------|
B|---------------------------------------------------------------------------|
G|---------------------------------------------------------------------------|
D|---2---2---2---2---2---2---2---2---2---2---2---2---2---2---2---2-----------|
A|-0---0---0---0-------------------------------------------------------------|
E|-----------------0---0---0---0---2---2---2---2---4---4---4---4-------------|
         It's cold outside...
e|---------------------------------------------------------------------------|
B|---------------------------------------------------------------------------|
G|---------------------------------------------------------------------------|
D|---2---2---2---2---2---2---2---2---2---2---2---2---2---2---2---2-----------|
A|-0---0---0---0-------------------------------------------------------------|
E|-----------------0---0---0---0---2---2---2---2---4---4---4---4-------------|
         I hate the sea----sons...here

Chorus:
A            E
  I suffer mornings most of all
F#          D
  I feel so powerless and small
A           E
  By 10 o'clock I'm back in bed
F#             D
  Fighting the jury in my head

Repeat as necessary, I haven't figured out a bridge I enjoy, if you figure one out feel 
to post and re-post this w/e

Chords for Chorus
    A  E  F# D
e|--0--0--2--2--|
B|--2--0--2--3--|
G|--2--1--2--2--|
D|--2--2--4--0--|
A|--0--2--4--0--|
E|--0--0--2--0--|
            
Submit corrections

↑ Back to top | Tablatures and chords for acoustic guitar and electric guitar, ukulele, drums are parodies/interpretations of the original songs. You may use it for private study, scholarship, research or language learning purposes only