Home » A » Amanda Palmer »

Amanda Palmer - Have To Drive Tabs

Artists:  A B C D E F G H I J K L M N O P Q R S T U V W X Y Z # 

Have To Drive Tabs

(ver. 2) Click to play this song!
Amanda Palmer
Have to Drive by Amanda Palmer

I don't think that this tab is 100% accurate, but it's pretty darn close. Give it a try, 

Thanks!

Intro:
----9----9----9----9---9---9---9---9--|
-10---10---10---10---9---9---9---9----|
--------------------------------------|   (x2)
--------------------------------------|
--------------------------------------|
--------------------------------------|

--------------------------------------|
---2---2---2---2---2---2---2---2------|
-2---2---2---2---1---1---1---1--------|   (x2)
--------------------------------------|
--------------------------------------|
--------------------------------------|

----------------------------------------------------------------------|
---2---2---2---2---2---2---2---2---2---2---2---2---2---2---2---2------|
-2---2---4---2---1---1---1---4---2---2---2---2---1---1---2---4--------|
----------------------------------------------------------------------|
----------------------------------------------------------------------|
----------------------------------------------------------------------|

Verse: (4x)
"I have to drive.."
"I have my reasons, dear.."
"It's cold outside.."
"I hate the seasons here.."
----------------------------------------------------------------------|
---2---2---2---2---2---2---2---2---2---2---2---2---2---2---2---2------|
-2---2---2---2---1---1---1---1---2---2---2---4---1---1---2---4--------|
----------------------------------------------------------------------|
----------------------------------------------------------------------|
----------------------------------------------------------------------|

(in between-ish transition notes)
-----0--|
-2------|
--------|
--------|
--------|
--------|

Prechorus:(x4)

"I suffer mornings most of all.."
"I feel so powerless and small.."
"By ten o'clock I'm back in bed.."
"Fighting the jury in my head.."
-------------------0---0---0---0-|
---2---2---2---2-----------------|
-2---2---2---2---1---1---1---1---|
---------------------------------|
---------------------------------|
---------------------------------|

(part from the verse again for in between the prechorus and the next verse.)
----------------------------------------------------------------------|
---2---2---2---2---2---2---2---2---2---2---2---2---2---2---2---2------|
-2---2---2---2---1---1---1---1---2---2---2---4---1---1---2---4--------|
----------------------------------------------------------------------|
----------------------------------------------------------------------|
----------------------------------------------------------------------|

Verse again (x4)

"We learn to drive.."
"It's only natural, dear.."
"We drive all night.."
"We haven't slept in years.."
----------------------------------------------------------------------|
---2---2---2---2---2---2---2---2---2---2---2---2---2---2---2---2------|
-2---2---2---2---1---1---1---1---2---2---2---4---1---1---2---4--------|
----------------------------------------------------------------------|
----------------------------------------------------------------------|
----------------------------------------------------------------------|

Prechorus again (x4)
"We suffer mornings most of all.."
"We saw you lying in the road.."
"We tried to dig a decent grave.."
"But it's still no way to behave.."
-------------------0---0---0---0-|
---2---2---2---2-----------------|
-2---2---2---2---1---1---1---1---|
---------------------------------|
---------------------------------|
---------------------------------|

Bridge:
Amaj      C#maj     F#min
"It is a delicate position.."
          Bmin             Gmaj
"Spin the bottle, pick the victim.."
         Emin          Amaj
"catch a tiger, switch directions..."
       Dmaj         Bmin      F#min
"if he hollers, break his ankles to protect him..."

               Dmaj                Amaj
"We'll have to drive.."
                 Dmaj              Amaj
"They're getting closer.."
           Dmaj                    Amaj
"Just get inside.."
             Dmaj                  Amaj      Dmaj      Amaj
"It's almost over.."


Dmaj    Amaj
we will save your brothers we
     Dmaj      Amaj
will save your cousins we will drive them
Dmaj  Amaj
far away from streets and lights
Dmaj     Amaj     Dmaj

(During the instrumental part,
I think it just switches around from Dmaj to Amaj and back again..)

Prechorus again: (x3)

"We suffer mornings most of all.."
"Wake up all bleary-eyed and sore.."
"Forgetting everything we saw.."
-------------------0---0---0---0-|
---2---2---2---2-----------------|
-2---2---2---2---1---1---1---1---|
---------------------------------|
---------------------------------|
---------------------------------|


"I'll meet you in an hour.."
"...at the car..."
            
Submit corrections

↑ Back to top | Tablatures and chords for acoustic guitar and electric guitar, ukulele, drums are parodies/interpretations of the original songs. You may use it for private study, scholarship, research or language learning purposes only