Home » A » Alvin And The Chipmunks »

Alvin And The Chipmunks - Christmas Dont Be Late Tabs

Artists:  A B C D E F G H I J K L M N O P Q R S T U V W X Y Z # 

Christmas Dont Be Late Tabs

(ver. 2) Click to play this song!
Alvin And The Chipmunks
-------------------------------------------------------------------------------
                             Chipmunk song – alvin n the chipmunks
-------------------------------------------------------------------------------

Tuning: dropped D

e|------------------------|
B|------------------------|
G|------------------------|
D|------9-----------------| repeat till u hear change lol
A|7-7--7-9-7-5-4-5-5-4-5--|
D|7-7----------5----------|

e|-----------------------------------------------------------------------------|
B|-----------------------------------------------------------------------------|
G|-----------------------------------------------------------------------------|
D|-----------------------------------------------------------------------------|
A|-----------------------------------------------------------------------------|
D|-7-7-7-7-7-7-7-7-2-2-2-2-2-2-2-2-2-2-2-2-2-2-2-2-7-7-7-7---------------------|

e|---------|     same here repeat
B|---------|
G|---------|
D|---------|
A|----7-7--|
D|-7-7-7---|

e|--------------------------------------|
B|--------------------------------------|
G|--------------------------------------|
D|--7-7-7-7--3-3-3-3--7-7-7-9-9-9--7-7--| “we can hardly stand the wait”
A|--5-5-5-5--1-1-1-1--5-5-5-7-7-7--7-7--|
E|--------------------------------------|
Solo
e|-----------------------------------------------------------------------------|
B|-----------------------------------------------------------------------------|
G|-----10--12--15-14--12-12---14-10--12--15-14-12-12---------------------------|
D|-12--------------------------------------------------------------------------|
A|-----------------------------------------------------------------------------|
E|-----------------------------------------------------------------------------|

e|-----------------------------------------------------------------------------|
B|-----------------------------------------------------------------------------|
G|-----10--12--15-14--12-12---14-10--12--15-14-12-12---------------------------|
D|-12--------------------------------------------------------------------------|
A|-----------------------------------------------------------------------------|
E|-----------------------------------------------------------------------------|

e|-----------------------------------------------------------------------------|
B|------------------------------------------------15-15-11-11------------------|
G|-----10--12--15-14--12-12---12-14-15-----------------------------------------|
D|-12--------------------------------------------------------------------------|
A|-----------------------------------------------------------------------------|
E|-----------------------------------------------------------------------------|

e|-----------------------------------------------------------------------------|
B|--15-15-15--11-11-11-16-16-16-15-15-15-13-13-13------------------------------|
G|-----------------------------------------------------------------------------|
D|-----------------------------------------------------------------------------|
A|-----------------------------------------------------------------------------|
E|-----------------------------------------------------------------------------|

e|-----------------------------------------------------------------------------|
B|-11-11-11-15-15-15-15-15-15--------------------------------------------------|
G|---------------------------------------12-12-12--12-12-12-10-10-10-----------|
D|-----------------------------------------------------------------------------|
A|-----------------------------------------------------------------------------|
E|-----------------------------------------------------------------------------|

e|-----------------------------------------------------------------------------|
B|-13-13-13-11-----------------------------------------------------------------|
G|-----------------------------------------------------------------------------|
D|-----------------------------------------------------------------------------|
A|-----------------------------------------------------------------------------|
E|-----------------------------------------------------------------------------|
            
Submit corrections

↑ Back to top | Tablatures and chords for acoustic guitar and electric guitar, ukulele, drums are parodies/interpretations of the original songs. You may use it for private study, scholarship, research or language learning purposes only