Home » A » Alvin And The Chipmunks »

Alvin And The Chipmunks - Christmas Dont Be Late Tabs

Artists:  A B C D E F G H I J K L M N O P Q R S T U V W X Y Z # 

Christmas Dont Be Late Tabs

(ver. 1) Click to play this song!
Alvin And The Chipmunks
Intro

e--------------------------------------------------------------------------|
B--------------------------------------------------------------------------|
G-------9---9-----------7---7---7----------9---9-----------7---7---7-------|
D---7-7---7---7-----5-5---5---5---5----7-7---7---7-----5-5---5---5---5-----|
A--------------------------------------------------------------------------|
E--------------------------------------------------------------------------|

e--------------------------------------------------------------------------|
B--------------------------------------------------------------------------|
G---2--2---------------------7-7-7-7---------------------------------------|
D---2--2---2-2-2-2-----5-5---7-7-7-7---(x4)--------------------------------|
A---0--0---2-2-2-2-----5-5---5-5-5-5---------------------------------------|
E----------0-0-0-0-----3-3-------------------------------------------------|


Verse (Muting)

e--------------------------------------------------------------------------------------|
B--------------------------------------------------------------------------------------|
G---2--2--2--2-(Played until Time For Cheer)-------------------------------------------|
D---2--2--2--2------------------------------2--2--2--2---------------------------------|
A---0--0--0--0------------------------------2--2--2--2--(Until Hurry Xmas, Hurry Fast)|
E-------------------------------------------0--0--0--0---------------------------------|

e--------------------------------------------------------------------------|
B--------------------------------------------------------------------------|
G----------------------------7-7-7-7---(Strum Down Only)-------------------|
D-----5-5-5-5----------------7-7-7-7---(Xmas Dont Be Late)-----------------|
A-----5-5-5-5--(Hoola Hoop)--5-5-5-5---------------------------------------|
E-----3-3-3-3--------------------------------------------------------------|

(Pre Solo)

e--------------------------------------------------------------------------|
B--------------------------------------------------------------------------|
G-------9---9-----------7---7---7----------9---9-----------7---7---7-------|
D---7-7---7---7-----5-5---5---5---5----7-7---7---7-----5-5---5---5---5-----|
A--------------------------------------------------------------------------|
E--------------------------------------------------------------------------|

(Solo)

e--------------------------------------------------------------------------|
B--------------------------------------------------------------------------|
G----10--12-----15--14------------14--10--12-------15---14-----------------|
D-12--------------------15—17-------------------------------15—17----------|
A--------------------------------------------------------------------------|
E--------------------------------------------------------------------------|

e--------------------------------------------------------------------------|
B--------------------------------------------------------------------------|
G----10--12-----15--14------------14--10--12-------15---14-----------------|
D-12--------------------15—17-------------------------------15—17----------|
A--------------------------------------------------------------------------|
E--------------------------------------------------------------------------|

e-------------------------------|
B-------------------------------|
G----10--12-----15--14----------|
D-12--------------------15—17---|
A-------------------------------|
E-------------------------------|

e------------------------------------------------------------------------------|
B----------------------------------------------------------------------13--11-|
G-----10--12---19-19---17---17--19--17--20--19--17--15--19--14--12--14--10-----|
D--12--------------------------------------------------------------------------|
A------------------------------------------------------------------------------|
E------------------------------------------------------------------------------|

(Post Solo)

e--------------------------------------------------------------------------|
B--------------------------------------------------------------------------|
G---2--2---------------------7-7-7-7---------------------------------------|
D---2--2---2-2-2-2-----5-5---7-7-7-7---(x4)--------------------------------|
A---0--0---2-2-2-2-----5-5---5-5-5-5---------------------------------------|
E----------0-0-0-0-----3-3-------------------------------------------------|

Verse (Muting)

e--------------------------------------------------------------------------------------|
B--------------------------------------------------------------------------------------|
G---2--2--2--2-(Played until Time For Cheer)-------------------------------------------|
D---2--2--2--2------------------------------2--2--2--2---------------------------------|
A---0--0--0--0------------------------------2--2--2--2--(Until Hurry Xmas, Hurry Fast)|
E-------------------------------------------0--0--0--0---------------------------------|

e--------------------------------------------------------------------------|
B--------------------------------------------------------------------------|
G----------------------------7-7-7-7---(Strum Down Only)-------------------|
D-----5-5-5-5----------------7-7-7-7---(Xmas Dont Be Late)-----------------|
A-----5-5-5-5--(Hoola Hoop)--5-5-5-5---------------------------------------|
E-----3-3-3-3--------------------------------------------------------------|

(Outro)
(Muted)
e--------------------------------------------------------------------------|
B--------------------------------------------------------------------------|
G---2-2----------------------------------------------7-7-7-7---------------|
D---2-2----2-2--(Strum Down)--5-5-5-5----------------7-7-7-7---(Late)------|
A---0-0----2-2----------------5-5-5-5--(Wait)--------5-5-5-5---------------|
E----------0-0----------------3-3-3-3--------------------------------------|

(Not Muted)

e--------------------------------------------------------------------------|
B--------------------------------------------------------------------------|
G----------------------------7-7-7-7----------------------------7----------|
D-----5-5-5-5----------------7-7-7-7---(Repeat Till Exit)---5-5-7----------|
A-----5-5-5-5----------------5-5-5-5------------------------3-3-5----------|
E-----3-3-3-3-----------------------------------------------3-3------------|
            
Submit corrections

↑ Back to top | Tablatures and chords for acoustic guitar and electric guitar, ukulele, drums are parodies/interpretations of the original songs. You may use it for private study, scholarship, research or language learning purposes only