» » »

Alt-j - Warm Foothills Acoustic Tabs

Artists:  A B C D E F G H I J K L M N O P Q R S T U V W X Y Z # 

Warm Foothills Acoustic Tabs

(ver. 1) Click to play this song!
Alt-j
 Rating:
4/5 (4 votes)

 Warm Foothills Acoustic  lessons Tabs too difficult? Try these video lessons and learn fast
 
                It sounds best if you use you middle finger to play the A string frets 
and mute the D string at the same time.

e |-----------------|
B |-----------------|   
F#|-------12---12---|
D |----0----0----0--|    x8
A |--12-12---12-----|
E |-----------------|

First Verse:

e |----------------|----------------|----------------|           |----------------|
B |----------------|----------------|----------------|           |----------------|
F#|-------12---12--|-------15---15--|-------17---17--|  x1       |-------15---15--|  x4
D |----0----0----0-|----0----0----0-|----0----0----0-|           |----0----0----0-|
A |--12-12---12----|--14-14---14----|--17-17---17----|           |--17-17---17----|
E |----------------|----------------|----------------|           |----------------|
     Dry dunes        cater            for jumping                  boys

     From the nape    of her neck      he made his                  descent

     They watched     men hurl         from rock to                 sea

     Like sternum     to button        lined lip pinches in         between


Chorus:

Here you shouldn't mute the D string                                                              

e |----------------|         |------------------|        |------------------|
B |----------------|         |------------------|        |------------------|           
F#|--------5---5---|  x3     |--------8-----8---|  x1    |--------7-----7---|  x3       
D |----5-----5---5-|         |----7-----7-----7-|        |----7-----7-----7-|           
A |--5---5-----5---|         |--7---7-----7-----|        |--7---7-----7-----|           
E |----------------|         |------------------|        |------------------| 
     Your                       foot                        hills
 
e |----------------|         |----------------|        
B |----------------|         |----------------|             
F#|-------13---13--|  x1     |-------12---12--|  x4          
D |----0----0----0-|         |----0----0----0-|        
A |--14-14---14----|         |--12-12---12----|            
E |----------------|         |----------------|        
    Your                         warm                          
          
Whistling (play first verse one time, then play chorus)

Second Verse (same as first verse)

     Iris                swims                  quietly beside                   me
        
     Oh the leaves       and larger weeds       sway and stretch themselves      beneath

     Blue dragonflies    dart                   to and                           fro

     I tie to your       balloon                and let it                       go

Chorus

Ending

e |-----------------|
B |-----------------|   
F#|-------12---12---|
D |----0----0----0--|    x18
A |--12-12---12-----|
E |-----------------|

            
Submit corrections


        Warm Foothills Acoustic  lessons Hard to play? Try these video lessons and learn fast Warm Foothills Acoustic  lessons
        
↑ Back to top | Tablatures and chords for acoustic guitar and electric guitar, ukulele, drums are parodies/interpretations of the original songs. You may use it for private study, scholarship, research or language learning purposes only