» » »

Alt-j - Taro Tabs

Artists:  A B C D E F G H I J K L M N O P Q R S T U V W X Y Z # 

Taro Tabs

(ver. 3) Click to play this song!
Alt-j
 Rating:
3.6/5 (23 votes)

 Taro lessons Tabs too difficult? Try these video lessons and learn fast
 
                ~Intro~

D |--------16-------12----------------------------------------------------------|
A |-----14-------12--------9-----10---------------------------------------------|
F#|--15-------12---------8-----7--------5-------5------8------7-----------------|
D |--------------------9-----7--------5-------5------9------7-------------------|
A |---------------------------------7-------5-----------------------------------|
D |-----------------------------------------------9------7----------------------|

~Verse~ 

D |---------------------------------------------------------|
A |---------------------------------------------------------|
F#|--------11--------10-------4-------3---------------------|  Repeat x3
D |-----12--------10--------5-------5-----------------------|
A |---------------------------------------------------------|
D |--12--------10---------5-------3-------------------------|

D |---------------------------------------------------------|
A |--------------------5------6-----------------------------|
F#|------1------1----4------3-------------------------------|  Repeat x1
D |----1------1----5------3---------------------------------|
A |--3------1-----------------------------------------------|
D |---------------------------------------------------------|

This pattern repeats throughout the whole song with breaks for the 'do not spray into eyes' line

In the chorus the second guitar plays tapped notes using a roll of tape   

D |---------------------------------------------------------------------------|
A |---20-20-20--20-20-20--20-20--20-20-17-17-17-------------------------------|
F#|---------------------------------------------------------------------------|
D |---------------------------------------------------------------------------|
A |---------------------------------------------------------------------------|
D |---------------------------------------------------------------------------|
            
Submit corrections


        Taro lessons Hard to play? Try these video lessons and learn fast Taro lessons
        
↑ Back to top | Tablatures and chords for acoustic guitar and electric guitar, ukulele, drums are parodies/interpretations of the original songs. You may use it for private study, scholarship, research or language learning purposes only