» » »

Alt-j - Something Good Tabs

Artists:  A B C D E F G H I J K L M N O P Q R S T U V W X Y Z # 

Something Good Tabs

(ver. 2) Click to play this song!
Alt-j
 Rating:
4/5 (4 votes)

 Something Good lessons Tabs too difficult? Try these video lessons and learn fast
 
                Tuning: Standard

INTRO:
E|------------------------------2----------------------------------------|
B|----0---0---0---0---0---0---0--3p2p0------0---0---0---0---0---0--0---0-|
G|-----------------------------------------------------------------------|
D|-----------------------------------------------------------------------|
A|--2--22---2--22---2--22---2--------------------------------------------|
E|----------------------------------------3--33---3--33---3--33---3--33--|  (x2)

VERSE:
E|--------------------------------------|
B|----0--0-----0--0-----0--0-----0--0---|
G|--------------------------------------|
D|--2--22----0--00----------------------|
A|-----------------------------2--22----|
E|--------------------3--33-------------|  (x4)
Something good...

DURING FIRST BRIDGE:
E|----0-|
B|--0---|
G|------|
D|------|
A|------|
E|0-----|  (x8)
While piano does the B D F# b F# D B D...

DURING CHORUS:
E|------------------------------------------------------------------|
B|-0-0---1-1p0--0----1p0---0--------0-0---1-1p0--0----1p0---0-0-----|
G|-0-0---0-0----0----0-----0--------2-2---0-0----0----0-----0-0-----|
D|------------------------------------------------------------------|
A|-----3--------------------------------3---------------------------|
E|0------------3--3-3----3---3-2---0------------3--3-3----3---------|  (x2)

VERSE:
E|--------------------------------------|
B|----0--0-----0--0-----0--0-----0--0---|
G|--------------------------------------|
D|--2--22----0--00----------------------|
A|-----------------------------2--22----|
E|--------------------3--33-------------|  (x4)
Something good...

DURING SECOND BRIDGE:
E|-10-7----------3--2--1--------|
B|------------------------------|
G|------------------------------|
D|------------------------------|
A|------------------------------|
E|------------------------------|
While piano does the B D F# b F# D B D...

DURING SECOND CHORUS:
E|------------------------------------------------------------------|
B|-0-0---1-1p0--0----1p0---0--------0-0---1-1p0--0----1p0---0-0-----|
G|-0-0---0-0----0----0-----0--------2-2---0-0----0----0-----0-0-----|
D|------------------------------------------------------------------|
A|-----3--------------------------------3---------------------------|
E|0------------3--3-3----3---3-2---0------------3--3-3----3---------|  (x2)

POST-SECOND CHORUS
E|------------------------------2----------------------------------------|
B|----0---0---0---0---0---0---0--3p2p0------0---0---0---0---0---0--0---0-|
G|-----------------------------------------------------------------------|
D|-----------------------------------------------------------------------|
A|--2--22---2--22---2--22---2--------------------------------------------|
E|----------------------------------------3--33---3--33---3--33---3--33--|  (x2)

After you play this, there is only the 0 0 0 on the B string until the bridge.

FINAL BRIDGE:

E|---2------------2------|
B|-0---3p2p0----0---3p2--|
G|-----------------------|
D|-----------------------|
A|-----------------------|
E|-----------------------|  (x4)

FINAL CHORUS:
E|------------------------------------------------------------------|
B|-0-0---1-1p0--0----1p0---0--------0-0---1-1p0--0----1p0---0-0-----|
G|-0-0---0-0----0----0-----0--------2-2---0-0----0----0-----0-0-----|      |
D|------------------------------------------------------------------|      V
A|-----3--------------------------------3---------------------------|
E|0------------3--3-3----3---3-2---0------------3--3-3----3---------| !!! (x4) !!!

FINAL VERSE:
E|--------------------------------------|
B|----0--0-----0--0-----0--0-----0--0---|
G|--------------------------------------|       |
D|--2--22----0--00----------------------|       V
A|-----------------------------2--22----|
E|--------------------3--33-------------|  !!! (x3) !!!
On fourth one, do this:
E|--------------------------------------|
B|--------------------------------------|
G|--------------------------------------|
D|--2--------0--------------------------|
A|-----------------------------2--------|
E|--------------------3---------------0-|
LET THE NOTES RING on this.

            
Submit corrections


        Something Good lessons Hard to play? Try these video lessons and learn fast Something Good lessons
        
↑ Back to top | Tablatures and chords for acoustic guitar and electric guitar, ukulele, drums are parodies/interpretations of the original songs. You may use it for private study, scholarship, research or language learning purposes only