» » »

Alt-j - Matilda Tabs

Artists:  A B C D E F G H I J K L M N O P Q R S T U V W X Y Z # 

Matilda Tabs

(ver. 3) Click to play this song!
Alt-j
 Rating:
4.3/5 (24 votes)

 Matilda lessons Tabs too difficult? Try these video lessons and learn fast
 
                [Intro]
N.C
This is from... This is from... This is from
Ma-
    D
e|--2-------2-------2-------2---3---2-------2-------2-------2---3----|
B|------3-------3-------3---------------3-------3-------3------------|
G|----2---2---2---2---2---2---2---2---2---2---2---2---2---2---2---2--|
D|--0-------0-------0-------0-------0-------0-------0-------0--------|
A|-------------------------------------------------------------------|
E|-------------------------------------------------------------------|
   -tilda
   
    G
e|--3-------3-------3-------0---2---3-------3-------3-------3--------|
B|------0-------0-------0---------------0-------0-------0-------0----|
G|------------0---0---------------------------0---0-----------0---0--|   x2
D|----0---0-----------0---0---0---0---0---0-----------0---0----------|
A|----------2---------------2---------------2---------------2--------|    
E|--3---------------3---------------3---------------3----------------|

[Verse]
    Em              G               Bm              A
e|-------------------------------------------------------------------|
B|----------------------------------3---------------2----------------|
G|--0---------------0-----------------4---------------2--------------|
D|----2---------------0-----------------4---------------2------------|
A|------2---------------2-----------2---------------0----------------|
E|--0---------------3------------------------------------------------|
          Just like Johnny.. ..I've taken  and  the one I must to go -
  
    Em              G               Bm              A
e|-------------------------------------------------------------------|
B|----------------------------------3---------------2----------------|
G|--0---------------0-----------------4---------------2--------------|
D|----2---------------0-----------------4---------------2------------|
A|------2---------------2-----------2---------------0----------------|
E|--0---------------3------------------------------------------------|
   -on    Put the.. pin in your.. so you..    who's bo - o - oss

    Em              G               Bm              A
e|-------------------------------------------------------------------|
B|----------------------------------3---------------2----------------|
G|--0---------------0-----------------4---------------2--------------|
D|----2---------------0-----------------4---------------2------------|
A|------2---------------2-----------2---------------0----------------|
E|--0---------------3------------------------------------------------|
          My de-  feat sleeps top to toe with her suc-cess         oh

[Chorus]
    Em                              A              
e|-------------------------------------------------------------------|
B|----------------------------------3--------------------------------|
G|--0---------------------------------2------------------------------|
D|----2---------------------------------2----------------------------|
A|------2---------------------------0--------------------------------|
E|--0----------------------------------------------------------------|
    This  is from                   This  is from      This is from Ma-

    D
e|--2-------2-------2-------2---3---2-------2-------2-------2---3----|
B|------3-------3-------3---------------3-------3-------3------------|
G|----2---2---2---2---2---2---2---2---2---2---2---2---2---2---2---2--|
D|--0-------0-------0-------0-------0-------0-------0-------0--------|
A|-------------------------------------------------------------------|
E|-------------------------------------------------------------------|
   -tilda
   
    G
e|--3-------3-------3-------0---2---3-------3-------3-------3--------|
B|------0-------0-------0---------------0-------0-------0-------0----|
G|------------0---0---------------------------0---0-----------0---0--|   
D|----0---0-----------0---0---0---0---0---0-----------0---0----------|
A|----------2---------------2---------------2---------------2--------|    
E|--3---------------3---------------3---------------3----------------|

[Bridge]
    Em              D               G               D
e|------------------2-------------------------------2----------------|
B|--------------------3-------------------------------3--------------|
G|--0-------------------2-----------0-------------------2------------|
D|----2-------------0-----------------0-------------0----------------|
A|------2-------------------------------2----------------------------|
E|--0-------------------------------3--------------------------------|
          And she   needs you -     ou, ... from Ma-tilda - a -

    Em              D               G               D
e|------------------2-------------------------------2----------------|
B|--------------------3-------------------------------3--------------|
G|--0-------------------2-----------0-------------------2------------|
D|----2-------------0-----------------0-------------0----------------|
A|------2-------------------------------2----------------------------|
E|--0-------------------------------3--------------------------------|
   -a     And she   needs you -     ou, ... from Ma-tilda - a

[Verse]
    Em              G               Bm              A
e|--------------------------3--------------------2----------0--------|
B|----------0-------------------0---3-------3-------2-----------2----|
G|--0-----------0---0-------------0---4---------------2-----2-----2--|
D|----2-----------2---0-------0---------4---------------2-----2------|
A|------2-----2---------2-----------2-----2---------0-----0----------|
E|--0-----0---------3-----3------------------------------------------|
          Just like Johnny.. ..I've taken  and  the one I must to go -
  
    Em              G               Bm              A
e|--------------------------3--------------------2----------0--------|
B|----------0-------------------0---3-------3-------2-----------2----|
G|--0-----------0---0-------------0---4---------------2-----2-----2--|
D|----2-----------2---0-------0---------4---------------2-----2------|
A|------2-----2---------2-----------2-----2---------0-----0----------|
E|--0-----0---------3-----3------------------------------------------|
   -on    Put the.. pin in your.. so you..    who's bo - o - oss

    Em              G               Bm              A
e|--------------------------3--------------------2----------0--------|
B|----------0-------------------0---3-------3-------2-----------2----|
G|--0-----------0---0-------------0---4---------------2-----2-----2--|
D|----2-----------2---0-------0---------4---------------2-----2------|
A|------2-----2---------2-----------2-----2---------0-----0----------|
E|--0-----0---------3-----3------------------------------------------|
          My de-  feat sleeps top to toe with her suc-cess         oh

[Chorus]
     Em                              A              
e|-------------------------------------------------------------------|
B|----------------------------------3---------------3----------------|
G|--0---------------0-----------------2---------------2--------------|
D|----2---------------2-----------------2---------------2------------|
A|------2---------------2-----------0---------------0----------------|
E|--0---------------0------------------------------------------------|
    This     is     from            This    is      from      This is from Ma-

    D
e|--2-------2-------2-------2---3---2-------2-------2-------2---3----|
B|------3-------3-------3---------------3-------3-------3------------|
G|----2---2---2---2---2---2---2---2---2---2---2---2---2---2---2---2--|
D|--0-------0-------0-------0-------0-------0-------0-------0--------|
A|-------------------------------------------------------------------|
E|-------------------------------------------------------------------|
   -tilda
   
    G
e|--3-------3-------3-------0---2---3-------3-------3-------3--------|
B|------0-------0-------0---------------0-------0-------0-------0----|
G|------------0---0---------------------------0---0-----------0---0--|   
D|----0---0-----------0---0---0---0---0---0-----------0---0----------|
A|----------2---------------2---------------2---------------2--------|    
E|--3---------------3---------------3---------------3----------------|

[Bridge]
   Em              D               G               D
e|------------------2-------------------------------2----------------|
B|--------------------3-------------------------------3--------------|
G|--0-------------------2-----------0-------------------2------------|  Repeat
D|----2-------------0-----------------0-------------0----------------|
A|------2-------------------------------2----------------------------| 
E|--0-------------------------------3--------------------------------|
          And she   needs you -     ou, ... from Ma-tilda - a -
          Elle  bus-soin de     toi, .. vient de Ma-tilda

   Em               D               G               D       
e|---------0--------2------2---------------3--------2------2--0------|
B|---------0----------3----3---------------3----------3----3----3----|
G|--0------0------------2--2--------0------0------------2--2---------|  Repeat
D|----2----2--------0------0----------0----0--------0------0---------|
A|------2--2----------------------------2--2-------------------------|
E|--0------0------------------------3------3-------------------------|
          And she needs you -       ou, ... from Ma-tilda

[Outro]
    A               G               D               D
e|----------------------------------2---------------2----------------|
B|--2---------------------------------3---------------3--------------|
G|----2-------------0-------------------2---------------2------------|
D|------2-------------0-------------0---------------0----------------|  Repeat
A|--0-------------------2--------------------------------------------|
E|------------------3------------------------------------------------|
                              Matilda...
                            
    A               G               D               
e|---------0---------------3---3p0--2--------------------------------|
B|--2------2----0h2--------0--------3--------------------------------|
G|----2----2--------0------0--------2--------------------------------|
D|------2--2----------0----0--------0---------------0----------------|  
A|--0------0------------2--2-----------------------------------------|
E|------------------3------3-----------------------------------------|
            
Submit corrections


        Matilda lessons Hard to play? Try these video lessons and learn fast Matilda lessons
        
↑ Back to top | Tablatures and chords for acoustic guitar and electric guitar, ukulele, drums are parodies/interpretations of the original songs. You may use it for private study, scholarship, research or language learning purposes only